Cifra Club

Aprenda

Home

Michael Bublé

Cifra: Principal (violão e guitarra)
tom: G
Intro: G  D/F#  Em  D11  C7M  D  G  D

Dedilhado Intro:

Parte 1

    G         D/F#       Em     D11
E|------------------------------------------|
B|------------------------------------------|
G|-----2h4-2------0h2-0------0------0-------|
D|---0----------0----------2------4---4-----|
A|------------------------------5-----------|
E|-3----------2----------0------------------|

Parte 2

    C7M        D        G    D
E|------------------------------------------|
B|---------0--3-------------3-3-------------|
G|-----0------2p0---0-------4-2-------------|
D|-0h2---2----0---4------0--0---------------|
A|-3----------------------------------------|
E|---------------------3--------------------|

Primeira Parte – Primeira Estrofe:

G                 D/F#
  Another summer day
                    Em
Has come and gone away
              D11
In Paris and Rome
                C7M  D  G  D
But I wanna go home

Dedilhado Primeira Parte - Primeira Estrofe:

Parte 1

    G         D/F#      Em        D11
E|------------------------------------------|
B|-0---0---------3---------0----------3-----|
G|-0---0---------2---------0----------0-----|
D|-0-0-0---0---0-0---0---2-2---2----4-4---4-|
A|--------------------------------5-----5---|
E|-3-----3---2-----2---0-----0--------------|

Parte 2

    C7M            D
E|------------------------------------------|
B|---------0-0-0--3-------------------------|
G|-----0---0-0-0--2p0---0-------------------|
D|---2---2-2-2-2--0---4---------------------|
A|-3----------------------------------------|
E|------------------------------------------|

Parte 3

    G          D
E|------------------------------------------|
B|-----0------3----3------------------------|
G|-----0------2h4--2------------------------|
D|---0-0---0--0----0------------------------|
A|------------------------------------------|
E|-3-----3----------------------------------|

Primeira Parte - Segunda Estrofe:

G                   D/F#
  Maybe surrounded by
                 Em
A million people I
                 D11
Still feel all alone
                 C7M
I just wanna go home
       D        G
Oh, I miss you,   you know

Dedilhado Primeira Parte - Segunda Estrofe:

Parte 1

    G         D/F#      Em        D11
E|------------------------------------------|
B|-0---0---------3---------0----------3-----|
G|-0---0---------2---------0----------0-----|
D|-0-0-0---0---0-0---0---2-2---2----4-4---4-|
A|--------------------------------5-----5---|
E|-3-----3---2-----2---0-----0--------------|
Parte 2

    C7M            D
E|------------------------------------------|
B|---------0-0-0--3-------------------------|
G|-----0---0-0-0--2p0---0-------------------|
D|---2---2-2-2-2--0---4---------------------|
A|-3----------------------------------------|
E|------------------------------------------|

Parte 3

    G
E|------------------------------------------|
B|-----0----------0-------------------------|
G|-----0----------0-------------------------|
D|---0-0---0----0-0---0---------------------|
A|------------------------------------------|
E|-3-----3----3-----3-----------------------|

Segunda Parte:

               C7M
And I've been keeping all the letters 
         Em7
That I wrote to you
               A4         A
In each one a line or two
                C7M         D11
I'm fine baby, how are you?

              C7M
Well I would send them but I know 
                Em7
That it's just not enough
               F7M/C
My words were cold and flat
                 D4    D
And you deserve more than that

Passagem Segunda Parte:

    D4       D
E|-------3--2-------------------------------|
B|-----3----3--3----3-----------------------|
G|---2------2--2h4--2p0---0-----------------|
D|-0--------0-----------4-------------------|
A|------------------------------------------|
E|------------------------------------------|

Primeira Parte – variação na letra:

G              D/F#
  Another airplane
                Em
Another sunny place
              D11
I'm lucky I know
                C7M
But I wanna go home
      D         G   D
I've got to go home

Refrão:

           G  D  Em    Bm
Let me go ho________me
              C7M
I'm just too far
               Em
From where you are
   D          G   D
I wanna come home

Base solo:

G  D/F#  Em  D11  C7M  D  G

Solo:

Parte 1:

E|-----10~--10-12-12/14\12p10----10-12------------------|
B|-7-8------------------------12-------10h12~-----------|
G|------------------------------------------------------|
D|------------------------------------------------------|
A|------------------------------------------------------|
E|------------------------------------------------------|

Parte 2:

E|------------------------------------------------------|
B|-10-8\7-8-10-7----7h8--7h8----------------------------|
G|---------------7--7h9--7h9----------------------------|
D|------------------------------------------------------|
A|------------------------------------------------------|
E|------------------------------------------------------|

Parte 3:

E|----------------------15-14---------------------------|
B|-------15-10/12-------------15----15------------------|
G|----------------14-12----------14----14h16------------|
D|-12-14------------------------------------------------|
A|------------------------------------------------------|
E|------------------------------------------------------|

Parte 4:

E|-------------15-12------------------------------------|
B|-------15-15------------------------------------------|
G|-12-14------------------------------------------------|
D|------------------------------------------------------|
A|------------------------------------------------------|
E|------------------------------------------------------|

Segunda Parte – variação na letra:

       C7M
And I feel just like I'm living 
        Em7
Someone else's life
                   A4            A
It's like I just stepped outside
                     C7M        D11
When everything was going right

        C7M
And I know just why you could not
       Em7
Come along with me
                F7M/C
Cause this was not your dream
                  D4        D
But you always believed in me

Terceira Parte:

G                 D/F#
  Another winter day 
                    Em
Has come and gone away
                  D11
And in Paris and Rome
                C7M
And I wanna go home
 D         G   D
Let me go home

G
  And I'm surrounded by
D/F#
     A million people
F/G                G7(9)
    I still feel alone
               C7M
Oh, let me go home
       D        G          D
Oh, I miss you,   you know

Dedilhado Terceira Parte - Segunda Estrofe:

Terceira Parte:

Parte 1

    G         D/F#      F/G       G7(9)
E|------------------------------------------|
B|-0---0---------3---------1----------0-----|
G|-0---0---------2---------2----------2-----|
D|-0-0-0---0---0-0---0---3-3---3----3-3---3-|
A|------------------------------------------|
E|-3-----3---2-----2---3-----3----3-----3---|

Parte 2

    C7M            D
E|------------------------------------------|
B|---------0-0-0--3-------------------------|
G|-----0---0-0-0--2p0---0-------------------|
D|---2---2-2-2-2--0---4---------------------|
A|-3----------------------------------------|
E|------------------------------------------|

Parte 3

    G          D
E|------------------------------------------|
B|-----0------3----3------------------------|
G|-----0------2h4--2------------------------|
D|---0-0---0--0----0------------------------|
A|------------------------------------------|
E|-3-----3----------------------------------|

Refrão Final:

           G  D  Em    Bm
Let me go ho________me
             C7M
I've had my run

           Em
Baby, I'm done
   D        G   D
I gotta go home

           G  D  Em    Bm
Let me go ho________me
                  C7M
It will all be alright
                D11
I'll be home tonight
                 G
I'm coming back home
Composição de Alan Chang / Michael Bublé
Colaboração e revisão:
342.513 exibições
  • Simplificar cifra
    • ½ Tom
    • A
    • Bb
    • B
    • C
    • Db
    • D
    • Eb
    • E
    • F
    • F#
    • G
    • Ab
  • Adicionar à lista

    0 comentários

    Ver todos os comentários

    Conseguiu tocar?

    41 Tocaram 1 Ainda não

    Grave um vídeo tocando Home e nos envie!

    00:00 / 00:00
    outros vídeos desta música
    repetir qualidade Automático
    Outros vídeos desta música
    00:00 / 00:00
    Automático
    Capítulos
    • Tocando a Música
    • Dicas iniciais / Equipamentos
    • Tocando a Introdução
    • Introdução Parte 1
    • Introdução Parte 2
    • Dicas Primeira Parte
    • Dicas primeira estrofe
    • Tocando primeira estrofe
    • Ensinando estrofes (1, 2 e 3)
    • Dicas Segunda Parte
    • Tocando Segunda parte
    • Ensinando ritmo
    • Passagem Segunda Parte
    • Dicas Refrão 1
    • Tocando Refrão
    • Ensinando ritmo do refrão
    • Dicas Solo
    • Tocando Solo
    • Ensinando solo - Parte 1 de 4
    • Ensinando solo - Parte 2 de 4
    • Ensinando solo - Parte 3 de 4
    • Ensinando solo - Parte 4 de 4
    • Dicas Terceira Parte
    • Tocando Terceira Parte
    • Ensinando Terceira Parte
    • Dicas Refrão final
    • Tocando refrão final
    • Dicas finais / Encerramento
    • Ficha Técnica

    Cifra Club Pro

    Aproveite o Cifra Club com benefícios exclusivos e sem anúncios
    Cifra Club Pro
    Aproveite o Cifra Club com benefícios exclusivos e sem anúncios
    OK