Cifra Club

Beat it, Black or White e Ben (Riffs)

Michael Jackson

Cifra: Principal
exibições 143.183
Tom: E
(intro)


E |-----|-----------------|-----------------|-----------------|-------------|
B |-----|-----------------|-----------------|-----------------|-------------|
G |-----|-------0---------|-----------------|-------0---------|-------------|
D |-----|---------2-----4-|---2-0---0-------|---------2-----4-|---2-0-------|
A |-----|-----2-----------|-----------------|-----2-----------|-------------|
E |--0--|---3-------------|---------------0-|---3-------------|-------------|


E |-----------------------------------|-----------------------|
B |-----------------------------------|-----------------------|
G |--x---x-x-12--x-x-12---9-------x-x-|-11---x-x-11---7-------|
D |--x---x-x-12--x-x-12---9-------x-x-|-12---x-x-12---7-------|
A |-----------------------------------|-----------------------|
E |-----------------------------------|-----------------------|


(base do vocal)


      E5          D5                    E5              D5
E |------------------|-------------|-----------------|-------------|
B |------------------|-------------|-----------------|-------------|
G |--x-9-9---9---x-7-|-7---7-------|-x-9-9---9---x-7-|-7---7-------|
D |--x-9-9---9---x-7-|-7---7-------|-x-9-9---9---x-7-|-7---7-------|
A |--x-7-7---7---x-5-|-5---5-------|-x-7-7---7---x-5-|-5---5-------|
E |------------------|-------------|-----------------|-------------|


     C5            D5                        E5      D5
E |-----------------|-------------|-----------------|------------------|
B |-----------------|-------------|-----------------|------------------|
G |-x-5-5---5---x-7-|-7---7-------|-x-9-9---9---x-7-|-7---7------------|
D |-x-5-5---5---x-7-|-7---7-------|-x-9-9---9---x-7-|-7---7------------|
A |-x-3-3---3---x-5-|-5---5-------|-x-7-7---7---x-5-|-5---5------------|
E |-----------------|-------------|-----------------|------------------|


Black or White

(Riff)


B |-10-10-10-10-10--9--7-7-7-7-7--9---|
G |-9--9--9--9--9---9--9-9-9-9-9--9---|


Ben

(intro)


E |------1-------------|--------1-------------|
B |----1--------3-1----|------1--------3-1----|
G |-2-------2-3-----3--|-2---------2-3-----3--|
D |--------------------|----------------------|
A |--------------------|----------------------|
E |-1------------------|-1--------------------|
Acordes para:
    Colaboração e revisão:
    • Hugo Pagliarini
    • Adriano Diniz

    0 comentários

      mostrar mais comentários

      Conseguiu tocar?

      24tocaram1ainda não

      Grave um vídeo tocando Beat it, Black or White e Ben (Riffs) e mande pra gente!

      00:00 / 00:00
      outros vídeos desta música
      repetirqualidadeautomática
      Outro vídeos desta música
        00:00 / 00:00
        automática
        Capítulos
        • Início
        • Tocando Riff de Beat It
        • Explicando Riff de Beat It
        • Tocando RIff de Beat It Devagar
        • Tocando Base do Riff de Beat It
        • Explicando Base do Riff de Beat It
        • Tocando Riff de Black or White
        • Explicando Riff de Black or White
        • Tocando Dedilhado da Introdução de Ben
        • Explicando Dedilhado da Introdução de Ben
        • Tocando Dedilhado da Base de Ben
        • Explicando Dedilhado da Base de Ben
        • Encerramento
        OK