Cifra Club

Aprenda

Beat It

Michael Jackson

Cifra: Principal (violão e guitarra)
tom: Eb (forma dos acordes no tom de E) Afinação: Eb Ab Db Gb Bb Eb
[Intro] E5  D5  E5  D5
        E5  D5  E5  D5

[Riff]

E|------------------------------------------|
B|------------------------------------------|
G|------------------------------------------|
D|-------5-2~-2h4-2-0-0--------5-2~-2h4-2-0-|
A|-----2---------------------2--------------|
E|-0-3-------------------0-3----------------|

[Guitarra]

E|------------------------------------------|
B|------------------------------------------|
G|-x-x-x-x-12-x-x-x-12-x-9-x----------------|
D|-x-x-x-x-12-x-x-x-12-x-9-x----------------|
A|-x-x-x-x----x-x-x----x---x----------------|
E|------------------------------------------|
   ↓ ↑ ↓ ↑ ↓  ↑ ↓ ↑ ↓  ↑ ↓ ↑

E|------------------------------------------|
B|------------------------------------------|
G|-x-x-x-x-11-x-x-x-11-x-7-x----------------|
D|-x-x-x-x-12-x-x-x-12-x-7-x----------------|
A|-x-x-x-x----x-x-x----x---x----------------|
E|------------------------------------------|
   ↓ ↑ ↓ ↑ ↓  ↑ ↓ ↑ ↓  ↑ ↓ ↑

[Primeira Parte]

E5
   They told him
                D5
Don't you ever come around here
       E5
Don't wanna see your face
            D5
You better disappear

     C5
The fire's in their eyes
D5           
   And their words are really clear
    E5            D5   
So beat it, just beat it

E5
   You better run
            D5
You better do what you can
       E5
Don't wanna see no blood
            D5
Don't be a macho man

     C5
You wanna be tough
    D5 
Better do what you can
    E5
So beat it
         D5
But you wanna be bad

[Refrão]

[Riff]

E|------------------------------------------|
B|------------------------------------------|
G|------------------------------------------|
D|-------5-2~-2h4-2-0-0--------5-2~-2h4-2-0-|
A|-----2---------------------2--------------|
E|-0-3-------------------0-3----------------|

      E5     
Just beat it, beat it
 D5
Beat it, beat it
 E5                   D5
No one wants to be defeated
  E5                     D5
Showing how funky and strong is your fight
E5                  D5
It doesn't matter who's wrong or right

      E5
Just beat it (beat it)
      D5
Just beat it (beat it)
      E5
Just beat it (beat it)
      D
Just beat it (beat it)

[Segunda Parte]

E5
   They're out to get you
    D5
Better leave while you can
       E5
Don't wanna be a boy
     D5
You wanna be a man?

     C5
You wanna stay alive?
        D5
Better do what you can
    E5            D5
So beat it, just beat it

E5
   You have to show them
      D5
That you're really not scared
         E5
You're playing with your life
                D5
This ain't no truth or dare

         C5
They'll kick you, then they beat you
              D5
Then they'll tell you it's fair
    E5               D5
So beat it, but you wanna be bad

[Refrão]

[Riff]

E|------------------------------------------|
B|------------------------------------------|
G|------------------------------------------|
D|-------5-2~-2h4-2-0-0--------5-2~-2h4-2-0-|
A|-----2---------------------2--------------|
E|-0-3-------------------0-3----------------|

      E5     
Just beat it, beat it
 D5
Beat it, beat it
 E5                   D5
No one wants to be defeated
  E5                     D5
Showing how funky and strong is your fight
E5                  D5
It doesn't matter who's wrong or right

      E5     
Just beat it, beat it
 D5
Beat it, beat it
 E5                   D5
No one wants to be defeated
  E5                     D5
Showing how funky and strong is your fight
E5                  D5
It doesn't matter who's wrong or right

      E5
Just beat it, beat it

Beat it, beat it

Beat it, beat it

Beat it, beat it

[Guitarra]

E|------------------------------------------|
B|------------------------------------------|
G|-x-x-x-x-12-x-x-x-12-x-9-x----------------|
D|-x-x-x-x-12-x-x-x-12-x-9-x----------------|
A|-x-x-x-x----x-x-x----x---x----------------|
E|------------------------------------------|
   ↓ ↑ ↓ ↑ ↓  ↑ ↓ ↑ ↓  ↑ ↓ ↑

E|------------------------------------------|
B|------------------------------------------|
G|-x-x-x-x-11-x-x-x-11-x-7-x----------------|
D|-x-x-x-x-12-x-x-x-12-x-7-x----------------|
A|-x-x-x-x----x-x-x----x---x----------------|
E|------------------------------------------|
   ↓ ↑ ↓ ↑ ↓  ↑ ↓ ↑ ↓  ↑ ↓ ↑

[Solo] E5  D5  E5  D5
       C5  D5  E5  D5
       E5  D5  E5  D5
       C5  D5  E5  D5
       
[Refrão]

[Riff]

E|------------------------------------------|
B|------------------------------------------|
G|------------------------------------------|
D|-------5-2~-2h4-2-0-0--------5-2~-2h4-2-0-|
A|-----2---------------------2--------------|
E|-0-3-------------------0-3----------------|

 E5       
Beat it, beat it
 D5
Beat it, beat it
 E5                   D5
No one wants to be defeated
  E5                     D5
Showing how funky and strong is your fight
E5                  D5
It doesn't matter who's wrong or right

      E5
Just beat, it beat it
 D5
Beat it beat it
 E5                   D5
No one wants to be defeated
  E5                     D5
Showing how funky and strong is your fight
E5                  D5
It doesn't matter who's wrong or right

      E5
Just beat, it beat it
 D5
Beat it beat it
 E5                   D5
No one wants to be defeated
  E5                     D5
Showing how funky and strong is your fight
E5                  D5
It doesn't matter who's wrong or right

      E5
Just beat, it beat it
 D5
Beat it beat it
 E5                   D5
No one wants to be defeated
  E5                     D5
Showing how funky and strong is your fight
E5                  D5
It doesn't matter who's wrong or right
Composição de Michael Jackson
869.601 exibições
  • Simplificar cifra
    • ½ Tom
    • A
    • Bb
    • B
    • C
    • Db
    • D
    • Eb
    • E
    • F
    • F#
    • G
    • Ab
  • Adicionar à lista

    0 comentários

    Ver todos os comentários

    Conseguiu tocar?

    66 Tocaram 8 Ainda não

    Grave um vídeo tocando Beat It e nos envie!

    00:00 / 00:00
    Outros vídeos desta música
    Repetir Qualidade Automático
    Outros vídeos desta música
    00:00 / 00:00
    Automático
    Capítulos
    • Início
    • Tocando Riff de Beat It
    • Explicando Riff de Beat It
    • Tocando RIff de Beat It Devagar
    • Tocando Base do Riff de Beat It
    • Explicando Base do Riff de Beat It
    • Tocando Riff de Black or White
    • Explicando Riff de Black or White
    • Tocando Dedilhado da Introdução de Ben
    • Explicando Dedilhado da Introdução de Ben
    • Tocando Dedilhado da Base de Ben
    • Explicando Dedilhado da Base de Ben
    • Encerramento

    Cifra Club Pro

    Aproveite o Cifra Club com benefícios exclusivos e sem anúncios
    Cifra Club Pro
    Aproveite o Cifra Club com benefícios exclusivos e sem anúncios
    OK