Cifra Club

Beat It

Michael Jackson

Tab de baixo: Principal
exibições 58.981
Introdução

Parte 01 de 01 ( tocar 2x )

G|----------------------------------------------|
D|-------5-2-2h4-2-0-0--------5-2-2h4-2-0-------|
A|-----2--------------------2-------------------|
E|-0-3------------------0-3---------------------|
B|----------------------------------------------|

Primeira parte

They told him don't you ever come around...

Parte 01 de 01 ( tocar 2x )

G|----------------------------------------------|
D|----------------------------------------------|
A|-7-7-7--5-5-5--7-7-7--5-5-5--3-3-3--5-5-5-----|
E|----------------------------------------------|
B|----------------------------------------------|

G|----------------------------------------------|
D|----------------------------------------------|
A|-7-7-7--5-5-5---------------------------------|
E|----------------------------------------------|
B|----------------------------------------------|

Refrão

Parte 01 de 01 ( tocar 2x )

G|----------------------------------------------|
D|-------5-2-2h4-2-0-0--------5-2-2h4-2-0-------|
A|-----2--------------------2-------------------|
E|-0-3------------------0-3---------------------|
B|----------------------------------------------|

Introdução 2

Parte 01 de 01 

G|----------------------------------------------|
D|-------5-2-2h4-2-0-0--------5-2-2h4-2-0-------|
A|-----2--------------------2-------------------|
E|-0-3------------------0-3---------------------|
B|----------------------------------------------|

Segunda parte

They're out to get you...

Parte 01 de 01 ( tocar 2x )

G|----------------------------------------------|
D|----------------------------------------------|
A|-7-7-7--5-5-5--7-7-7--5-5-5--3-3-3--5-5-5-----|
E|----------------------------------------------|
B|----------------------------------------------|

G|----------------------------------------------|
D|----------------------------------------------|
A|-7-7-7--5-5-5---------------------------------|
E|----------------------------------------------|
B|----------------------------------------------|

Refrão 2

Parte 01 de 01 ( tocar 4x )

G|----------------------------------------------|
D|-------5-2-2h4-2-0-0--------5-2-2h4-2-0-------|
A|-----2--------------------2-------------------|
E|-0-3------------------0-3---------------------|
B|----------------------------------------------|

Solo de Guitarra

Parte 01 de 03 ( tocar 4x )

G|----------------------------------------------|
D|----------------------------------------------|
A|----------------------------------------------|
E|-0-0-0--0-0-0--0-0-0--0-0-0-------------------|
B|----------------------------------------------|

Parte 02 de 03
 
   T
G|----------------------------------------------|
D|----------------------------------------------|
A|----7-7-7--5-5-5--7-7-7--5-5-5--3-3-3--5-5-5--|
E|-0--------------------------------------------|
B|----------------------------------------------|

G|----------------------------------------------|
D|----------------------------------------------|
A|-7-7-7--5-5-5---------------------------------|
E|----------------------------------------------|
B|----------------------------------------------|

Parte 03 de 03

G|----------------------------------------------|
D|----------------------------------------------|
A|-7-7-7--5-5-5--7-7-7--5-5-5--3-3-3--5-5-5-----|
E|----------------------------------------------|
B|----------------------------------------------|

G|----------------------------------------------|
D|----------------------------------------------|
A|-7-7-7--5-5-5---------------------------------|
E|----------------------------------------------|
B|----------------------------------------------|

Refrão 3

Parte 01 de 01 ( tocar 4x + fade out )

G|----------------------------------------------|
D|-------5-2-2h4-2-0-0--------5-2-2h4-2-0-------|
A|-----2--------------------2-------------------|
E|-0-3------------------0-3---------------------|
B|----------------------------------------------|

G|----------------------------------------------|
D|-------5-2-2h4-2-0-0--------5-2-2h4-2-0-------|
A|-----2--------------------2-------------------|
E|-0-3------------------0-3---------------------|
B|----------------------------------------------|
Composição: Michael JacksonColaboração e revisão:

0 comentários

    mostrar mais comentários

    Conseguiu tocar?

    9tocaram0ainda não

    Grave um vídeo tocando Beat It e mande pra gente!

    00:00 / 00:00
    outros vídeos desta música
    repetirqualidadeautomática
    Outro vídeos desta música
      00:00 / 00:00
      automática
      Capítulos
      • Tocando a música
      • Apresentação / Equipamentos
      • Tab - Introdução
      • Tab - Primeira Parte
      • Tab - Refrão
      • Tab - Solo de guitarra - Parte 1 de 3
      • Tab - Solo de guitarra - Parte 2 de 3
      • Tab - Solo de guitarra - Parte 3 de 3
      • Tab - Refrão final
      • Encerramento
      OK