Cifra Club

Aprenda

Beat It

Michael Jackson

Tab de baixo: Principal
[Intro]

G |------------------------------------------------|
C#|--------5-2--2h4-2-0-0---------5-2--2h4-2-0-----|
A |------2----------------------2------------------|
D#|-0--3-------------------0--3--------------------|
B |------------------------------------------------|

[Primeira Parte]

They told him don't you ever come around..

G |-------------------------------------------------|
C#|-------------------------------------------------|
A |-6-6--6--4-4--4--6-6--6--4-4--4--2-2--2--4-4--4--|
D#|-------------------------------------------------|
B |-------------------------------------------------|

G |-------------------------------------------------|
C#|-------------------------------------------------|
A |-6-6--6--4-4--4----------------------------------|
D#|-------------------------------------------------|
B |-------------------------------------------------|

[Refrão]

Parte 01 de 01 ( tocar 2x )

G |-------------------------------------------------|
C#|--------5-2--2h4-2-0-0---------5-2--2h4-2-0------|
A |------2----------------------2-------------------|
D#|-0--3-------------------0--3---------------------|
B |-------------------------------------------------|

G |-------------------------------------------------|
C#|--------5-2--2h4-2-0-0---------5-2--2h4-2-0------|
A |------2----------------------2-------------------|
D#|-0--3-------------------0--3---------------------|
B |-------------------------------------------------|

[Segunda Parte]

They're out to get you...

G |--------------------------------------------------|
C#|--------------------------------------------------|
A |-6-6--6--4-4--4--6-6--6--4-4--4--2-2--2--4-4--4---|
D#|--------------------------------------------------|
B |--------------------------------------------------|

G |--------------------------------------------------|
C#|--------------------------------------------------|
A |-6-6--6--4-4--4-----------------------------------|
D#|--------------------------------------------------|
B |--------------------------------------------------|

[Refrão 2]

G |--------------------------------------------------|
C#|--------5-2--2h4-2-0-0---------5-2--2h4-2-0-------|
A |------2----------------------2--------------------|
D#|-0--3-------------------0--3----------------------|
B |--------------------------------------------------|

[Solo]

Parte 01 de 03 
G |---------------------------------------------------|
C#|---------------------------------------------------|
A |---------------------------------------------------|
D#|-0-0-0--0-0-0--0-0-0--0-0-0------------------------|
B |---------------------------------------------------|

Parte 02 De 03
    T
G |---------------------------------------------------|
C#|---------------------------------------------------|
A |----6-6--6--4-4--4--6-6--6--4-4--4--2-2--2--4-4--4-|
D#|-0-------------------------------------------------|
B |---------------------------------------------------|

G |---------------------------------------------------|
C#|---------------------------------------------------|
A |-6-6--6--4-4--4------------------------------------|
D#|---------------------------------------------------|
B |---------------------------------------------------|

Parte 03 De 03
G |---------------------------------------------------|
C#|---------------------------------------------------|
A |-6-6--6--4-4--4--6-6--6--4-4--4--2-2--2--4-4--4----|
D#|---------------------------------------------------|
B |---------------------------------------------------|

G |---------------------------------------------------|
C#|---------------------------------------------------|
A |-6-6--6--4-4--4------------------------------------|
D#|---------------------------------------------------|
B |---------------------------------------------------|

[Refrão 3]

G |---------------------------------------------------|
C#|--------5-2--2h4-2-0-0---------5-2--2h4-2-0--------|
A |------2----------------------2---------------------|
D#|-0--3-------------------0--3-----------------------|
B |---------------------------------------------------|

G |--------------------------------------------------|
C#|--------5-2--2h4-2-0-0---------5-2--2h4-2-0-------|
A |------2----------------------2--------------------|
D#|-0--3-------------------0--3----------------------|
B |--------------------------------------------------|
Composição de Michael Jackson
Colaboração e revisão:
65.629 exibições

0 comentários

Ver todos os comentários

Conseguiu tocar?

18 Tocaram 0 Ainda não

Grave um vídeo tocando Beat It e nos envie!

00:00 / 00:00
Outros vídeos desta música
Repetir Qualidade Automático
Outros vídeos desta música
00:00 / 00:00
Automático
Capítulos
  • Tocando a música
  • Apresentação / Equipamentos
  • Tab - Introdução
  • Tab - Primeira Parte
  • Tab - Refrão
  • Tab - Solo de guitarra - Parte 1 de 3
  • Tab - Solo de guitarra - Parte 2 de 3
  • Tab - Solo de guitarra - Parte 3 de 3
  • Tab - Refrão final
  • Encerramento

Cifra Club Pro

Aproveite o Cifra Club com benefícios exclusivos e sem anúncios
Cifra Club Pro
Aproveite o Cifra Club com benefícios exclusivos e sem anúncios
OK