Cifra Club

The Departure

Michael Nyman

Cifra: Principal (violão e guitarra)
Selo Cifra Club: esta cifra foi revisada para atender aos critérios oficiais da nossa Equipe de Qualidade.
tom: A
E|---5--4--2------0--2----5--4-----------------5--4--5--4--5--4-----------2----|
B|---2--------2---2-------2-----5--2---5--2----2-----------2-----5--2--5-------|
G|---2------------2-------2------------2-------2-----------2-----------2-------|
D|------------------------0------------4-------------------------------0-------|
A|-------------------------------------2---------------------------------------|
E|---2------------0----------------------------2-----------0-------------------|

E|---5--4--0-----0---------4--5--7--9--7--5------5--7---9-------------5--2-----|
B|---3--------------7---5-----------5--------5---5------10-12-10------2--------|
G|------------6--6------4-----------6------------4---------------11---2--------|
D|---4-----------6------6-------------------------------11------------0--------|
A|---2-----------4------------------0-------------------9----------------------|
E|----------------------0------------------------4-----------------------------|

E|---5--4--2-----0--2------4--5--4--7--4----5--4--2-----0-----2-----5--4--0----|
B|---2--------2--3------2-----------5----------2--2--2-----2--2--2-----2--2--2-|
G|---2-----------2------2----------------------2--2--2-----2--2--2-----2--2--2-|
D|---------------4------2-----------6----------------4--------------0--------4-|
A|---4-----------2------0------------------------------------------------------|
E|----------------------------------0-------2-----------0----------------------|

E|----------------5--4--5--4--5--4--0-----------2-----5--4--0-----0------------|
B|---5-----2---------2--2--2-----2--2--2--5--------------3--3-----------7------|
G|------2--2--2------2--2--2-----2--2--2-----2--2--2-----------6-----6--6--6---|
D|------4--4--4------------------------4-----4--4--4-----4--4--4-----6--6--6---|
A|---2------------------------------------5-----------2-----------4------------|
E|----------------2-----------0------------------------------------------------|

E|------4--5--7---9--7--5-----5-----7------9-------------5-----2-----5--4--2----|
B|---5--5--5--5------------5-----5--5--5------12-10--7------2--2--2-----2--2--2-|
G|---4---------------6--6--6-----4------------11-11--6------2--2--2-----2--2--2-|
D|---6--6--6--6------7--7--7-----6--6--6------11-11--7---0--------------------4-|
A|----------------0------------------------9-------------------------4----------|
E|---4------------------------4-------------------------------------------------|

E|---0-----2---------4--5--4---7-----4-------------------2----------------------|
B|---3--3--3--3---2--2--2--2---5--5--5--5---2--5-^-2--5-------5-----2-----5-^-2-|
G|---2--2--2--2---2--2--2--2--------------------------2-----2-----2-------------|
D|---4------------2------------6--6--6--6-------------4-----4-----4-------------|
A|---2------------0-------------------------------------------------------------|
E|-----------------------------0------------2---------------------------0-------|

E|------2-----4-----5--5--4-^-2--4--5-----4-----2-----------------------7------|
B|---5---------------------------2-----2-----2------10--9-^-7--9--10--------10-|
G|---2-----2-----2---------------2-----2-----2-----------------7-----7-----7---|
D|---4-----4-----4-----0---------------------------------------7-----7-----7---|
A|-----------------------------------------------------------------------------|
E|--------------------------------------------------7--------------------------|

E|---5--4-^-2--4--5-----7-----5--5--4-^-2--4--5-----4-----2----------------2----|
B|-------------2-----2---------------------2-----2-----2------2--5-^-2--5-------|
G|-------------2-----2-----6---------------2-----2-----2----------------2-----2-|
D|-------------------------7----------------------------------0---------------4-|
A|---0--------------------------------------------------------------------------|
E|-------------------------------4----------------------------------------------|

E|---4----5---5--4-^-2--4--7-----5-----------------5--7----5-----4---2-----2--4-|
B|----------------------2--------------7------5-------------------------5-----2-|
G|-----2----------------2-----6-----6------6----6--6----6-----6---------------2-|
D|-----4----------------------7-----7--------------7----7-----7------0----------|
A|------------------------------------------------------------------------------|
E|------------2----------------------------0------------------------------------|

                                              (*)Artificial Harmonics
E|---5-----4-----2---------------------7----------(5)-(4)-(2)-------------------| (2)
B|------2-----2------7-----7--9--10----------10----2-------------(2)---(5)------|
G|------2-----2---------9-----7-----7-----7--------2--------------------2-------|
D|----------------------------7-----7-----7--------4--------------------2-------|
A|-------------------------------------------------4--------------------4-------|
E|-------------------7-----------------------------2--------------------0-------|

E|--(5)-(4)------------------------(5)--(4)--(5)--(4)--(5)--(4)----------------|
B|---2--------(5)-(2)---(5)-(2)-----2-------------------2--------(5)--(2)--(5)-|
G|---2-------------------2----------2-------------------2-------------------2--|
D|---0-------------------4----------4-------------------2-------------------0--|
A|-----------------------2----------4-------------------4----------------------|
E|----------------------------------2-------------------0----------------------|

E|--(2)--(5)--(4)--------------------------------------------------------------|
B|--------3--------(5)--(2)----------------------------------------------------|
G|--------2--------------------2-----------------------------------------------|
D|--------4--------------------------------------------------------------------|
A|--------2--------------------------------------------------------------------|
E|-----------------------------2-----------------------------------------------|
Outros vídeos desta música
      • ½ Tom
      • A
      • Bb
      • B
      • C
      • Db
      • D
      • Eb
      • E
      • F
      • F#
      • G
      • Ab
    • Adicionar à lista

    Afinação da cifra

    Afinador online

      0 comentários

      Ver todos os comentários

      Entre para o Cifra Club PRO

      Tenha acesso a benefícios exclusivos no App e no Site

      • Chega de anúncios

      • Badges exclusivas

      • Mais recursos no app do Afinador

      • Atendimento Prioritário

      • Aumente seu limite de lista

      • Ajude a produzir mais conteúdo

      Cifra Club Pro

      Aproveite o Cifra Club com benefícios exclusivos e sem anúncios
      Cifra Club Pro
      Aproveite o Cifra Club com benefícios exclusivos e sem anúncios
      OK