Cifra Club

Muse

Mike Oldfield

Cifra: Principal (violão e guitarra)
tom: C

Album: Guitars
Transcribed by: Jan Nosek
Email: *

tempo 119

Intro 2nd guitar
Em
----------0--------0--------0---------------0-0-----0----------0--------------
------0--------0--------0--------0--------0-------0-------0-------------------
----0---0--------0--------0--------0----0-------0-------0---0-----------------
--------------------------------------2---------------2--------2--------------
------------------------------------------------------------------------------
--0-------------------------------------------0-------------------------------
                                                                              
Variation 1
Em                 C                 D               C
---------0--------|---------0-------|-------2-2-----|-------------------------
-----0-------0----|-----1-------1---|-----3-------3-|-----0h1-0---------------
---0---0---0---0--|---0---0---0---0-|---2-----------|---0-------2p0-2---------
------------------|-----------------|-0-------------|-------------------------
------------------|-3---------------|---------------|-3-----------------------
-0----------------|-----------------|---------------|-------------------------
                                                                              
Variation 2
Em                 Hm                C        D        Em
---------0--------|---------2-------|-------0-------2-|-0---------0-----------
-----0-------0----|-----3-------3---|-----1-------3---|---0---0-----0---------
---0---0---0---0--|---4---4---4---4-|---0-------2-----|-----0---------0-------
------------------|-----------------|---------0-------|-----------------------
------------------|-2---------------|-3---------------|-----------------------
-0----------------|-----------------|-----------------|-0---------------------
                                                                              
Variation 3
Hm                 C(3rd)               D(5th)           C
---------2--------|---------3------------------5-----------0------------------
-----3-------3----|-----5--------5---------7-------7---------1----------------
---4---4---4---4--|---5---5--------------7---7---7---7---------0--------------
------------------|------------5-----5/7-------------------------2------------
-2----------------|-3----------------3/5-----------------3----------3---------
------------------|-----------------------------------------------------------
                                                                              
Variation 4
C                  Hm                C        D        Em
---------0--------|---------2-------|-------0-------2-|-0-------0-------------
-----1-------1----|-----3-------3---|-----1-------3---|---0-------------------
---0---0---0---0--|---4---4---4---4-|---0-------2-----|-----0-----------------
------------------|-----------------|---------0-------|-------2---------------
-3----------------|-2---------------|-3---------------|-----------------------
------------------|-----------------|-----------------|-0---------------------
                                                                              
Variation 5
Em                 Hm                C(3rd)         D(5th)
---------0--------|---------2-------|---------3----|---------5----------------
-----0-------0----|-----3-------3---|-----5--------|-------7-7----------------
---0---0---0---0--|---4---4---4---4-|---5---5----5-|-----7---7----------------
------------------|-----------------|------------5-|---7----------------------
------------------|-2---------------|-3------------|-5------------------------
-0----------------|-----------------|--------------|--------------------------
                                                                              
Variation 6
C                  Hm                C        D        Em       
---------0--------|---------2-------|-------0-------2-|-0-------0-------------
-----1-------1----|-----3-------3---|-----1-------3---|---0-------0-----------
---0---0---0---0--|---4---4---4---4-|---0-------2-----|-----0-------0---------
------------------|-----------------|---------0-------|-------2---------------
-3----------------|-2---------------|-3---------------|-----------------------
------------------|-----------------|-----------------|-0---------------------
                                                                              
Variation *
Em                 Hm                C         D        Hm         Em
---------0--------|---------2-------|--------0-------2-|----2-----------0-----
-----0-------0----|-----3-------3---|------1-------3---|---3--5p3------0------
---0---0---0---0--|---4---4---4---4-|----0-------2-----|--4-----------0-------
------------------|-----------------|----------0-------|-------------2--------
------------------|-2---------------|-3----------------|-2----------2---------
-0----------------|-----------------|------------------|-----------0----------
                                                                              

Main guitar
Variation 1
mf
-7-5-7------------------------------------------------------------------------
-------5-7-8-10---3h5-3--10-10-/12-12-----------------------------------------
----------------5----------------------7-9------------------------------------
------------------------------------------------------------------------------
------------------------------------------------------------------------------
------------------------------------------------------------------------------
                                                                              
Variation 2
  f                  mp           mf
---------------------------------7-5------------------------------------------
--12-10-12-\5--5-7-8-10---5-7-5------8-7--5-----------------------------------
------------------------7-----------------------------------------------------
------------------------------------------------------------------------------
------------------------------------------------------------------------------
------------------------------------------------------------------------------
                                                                              
Variation 3
                                >
------------------------------------------------------------------------------
-7-8-10-----5-7-8----3-5-3--10-10-/12-12--------------------------------------
--------7-7-------5-----------------------7-9---------------------------------
------------------------------------------------------------------------------
------------------------------------------------------------------------------
------------------------------------------------------------------------------
                                                                              
Variation 4
                        >           f
------------------------------------------------------------------------------
-10/12-10-12-\5--5-7-8-10-----------12-10-8-7-7h8p7---------------------------
--------------------------7--9-11-9-----------------9-------------------------
------------------------------------------------------------------------------
------------------------------------------------------------------------------
------------------------------------------------------------------------------
                                                                              
Variation 1
f                       mf                  mp
-7-5-7------------------------------------------------------------------------
-------5--5-5-7-8-10---3h5-3--10-10-/12-12------------------------------------
---------------------5----------------------7-9-------------------------------
------------------------------------------------------------------------------
------------------------------------------------------------------------------
------------------------------------------------------------------------------
                                                                              
Variation 2
mf                 mp             ff
----------------------------------7-5-----------------------------------------
--10/12-10-12-\5--7-8-10---5-7-5------8-7-\5----------------------------------
-------------------------7----------------------------------------------------
------------------------------------------------------------------------------
------------------------------------------------------------------------------
------------------------------------------------------------------------------
                                                                              
Variation 3
f                     mf        >         mp
------------------------------------------------------------------------------
-7-8-10-----5-7-8----3h5-3--10-10-/12-12--------------------------------------
--------7-7-------5-----------------------7-9---------------------------------
------------------------------------------------------------------------------
------------------------------------------------------------------------------
------------------------------------------------------------------------------
                                                                              
Variation 4
mf                                      ff      mf
---------------------------------------7-5------------------------------------
-10h12-10-12-\5--5-5-7-8-10----------------8-7--7h8p7-5-----------------------
----------------------------7--9-11-9-----------------------------------------
------------------------------------------------------------------------------
------------------------------------------------------------------------------
------------------------------------------------------------------------------
                                                                              
Variation 5
                          f          mp 
------------------------------------------------------------------------------
-5-7-8-5--5-5-7-8-10-\3--5-7-5--7-8--10/12-10---------------------------------
------------------------------------------------------------------------------
------------------------------------------------------------------------------
------------------------------------------------------------------------------
------------------------------------------------------------------------------
                                                                              
Variation 6
mf
------------------------------------------------------------------------------
-5-7-8-5--5-5-7-8-10-\3--5-7-5--10/12-10-8-7-5--------------------------------
------------------------------------------------------------------------------
------------------------------------------------------------------------------
------------------------------------------------------------------------------
------------------------------------------------------------------------------
                                                                              
Variation 5
                           f            ff
------------------------------------------------------------------------------
-5-7-8-5--5-5-7-8-10--\3--5-7-5--7-8--10/12-10--------------------------------
------------------------------------------------------------------------------
------------------------------------------------------------------------------
------------------------------------------------------------------------------
------------------------------------------------------------------------------
                                                                              
Variation 6
mf                        mp      p
---------------------------------7-5------------------------------------------
-5-7-8-5--5-5-7-8-8h10----5-7-5------8-7-7h8p7-5p3-5--------------------------
-----------------------7------------------------------------------------------
------------------------------------------------------------------------------
------------------------------------------------------------------------------
------------------------------------------------------------------------------
                                                                              
Variation 1
mp      mf                        >               f
-7-5-7-------------------------------------------7h8-7\5---5-/7---------------
-------5--5-5-7-8-10---3-5-3--10-10-/12-12---------------8--------------------
---------------------5----------------------7-9-------------------------------
------------------------------------------------------------------------------
------------------------------------------------------------------------------
------------------------------------------------------------------------------
                                                                              
Variation *
mf                 mp                            p
------------------------------------------------------------------------------
-5--5-5-7-8-10------------10/12-10-8-7--7h8p7p5-5\3-5-------------------------
---------------7--9-11-9------------------------------------------------------
------------------------------------------------------------------------------
------------------------------------------------------------------------------
------------------------------------------------------------------------------
Composição de Mike Oldfield
1.512 exibições
    • ½ Tom
    • A
    • Bb
    • B
    • C
    • Db
    • D
    • Eb
    • E
    • F
    • F#
    • G
    • Ab
  • Adicionar à lista

    0 comentários

    Ver todos os comentários
    00:00 / 00:00
    Outros vídeos desta música
    Repetir Qualidade Automático
    Outros vídeos desta música
    00:00 / 00:00
    Automático

    Cifra Club Pro

    Aproveite o Cifra Club com benefícios exclusivos e sem anúncios
    Cifra Club Pro
    Aproveite o Cifra Club com benefícios exclusivos e sem anúncios
    OK