Cifra Club

Nuclear

Mike Oldfield

Cifra: Principal (violão e guitarra)
tom: Fm (forma dos acordes no tom de Em) Capotraste na 1ª casa
[Primeira Parte]

  Em            Bm            Em
Standing on the edge of the crater
                  Bm
Like the prophets once said
        Em             Bm
And the ashes are all cold now
         Em                    Bm
No more bullets and the embers are dead

[Segunda Parte]

  Am             Em           Am
Whispers in the air tell the tales
                 Em
Of the brothers gone
     Am
Desolation
      Em
Devastation
        C7
What a mess we made
                   B
When it all went wrong

[Pré-Refrão]

 Em               Bm           Em
Watching from the edge of the circus
               Bm
For the games to begin
    Em                  Bm
Gladiators draw their swords
            C7            B
Form their ranks for armageddon

[Refrão]

Em
I'm nuclear
     Bm
I'm wild
      Am           Bm
I'm breaking up inside
             Em
A heart of broken glass
   Bm
Defiled
     C7
Deep inside
                B
The abandoned child

[Terceira Parte]

Em              Bm          Em
Standing on the edge of the underworld
               Bm
Looking at the abyss 
         Em              Bm
And I'm hoping for some miracle
     Em                    Bm
To breakout to escape from all this
  Am            Em
Whispers in the air
          Am                    Em
Tell the tail of a life that's gone
     Am
Desolation
      Em
Devastation
        C7
What a mess we made
                   B
When it all went wrong

[Refrão]

Em
I'm nuclear
     Bm
I'm wild
      Am           Bm
I'm breaking up inside
             Em
A heart of broken glass
   Bm
Defiled
     C7
Deep inside
                B
The abandoned child

[Solo] Em  Bm  Am  Bm  Em  Bm  A#m  Bm

E|----------------------------------------------------|
B|----------------------------------------------------|
G|-9-11-9-11-9-11-9-11---11b12-b12r11-9-------------9-|
D|------------------------------------------------9---|
A|--------------------------------------------/10-----|
E|----------------------------------------------------|

E|----------------------------------------------------|
B|----------------------------------------------------|
G|-12-11-------------------------------------9-12-11~-|
D|-------9b10r9---9/14-14--12-10-----9-10-12----------|
A|--------------------------------12------------------|
E|----------------------------------------------------|

E|----------------------------------------------------|
B|----------------------------------------------------|
G|---8-------8----9-11---11b12-b12r11--9~-------------|
D|-9---9---9------------------------------------------|
A|-------9--------------------------------------------|
E|----------------------------------------------------|

E|-11b12----------------------------------------------|
B|-------12------------------------------5-5-5--------|
G|----------11-9-11~---------------------------5-5-4--|
D|----------------------------------------------------|
A|-----------------------9-10-9-----------------------|
E|----------------------------------------------------|

E|----------------------------------------------------|
B|-------3-5-7-8-5-------16-16-16-16-17-19-19b21-b21--|
G|-2-3-5----------------------------------------------|
D|-----------------2----------------------------------|
A|----------------------------------------------------|
E|-----------------0----------------------------------|

[Refrão]

Em
I'm nuclear
     Bm
I'm wild
      Am           Bm
I'm breaking up inside
             Em
A heart of broken glass
   Bm
Defiled
     C7
Deep inside
                B
The abandoned child

[Final] Em  Bm  Am  Bm  Em  Bm  A#m  Bm

Deep inside, the abandoned child!
Composição de Mike Oldfield
Colaboração e revisão:
15.422 exibições
    • ½ Tom
    • Am
    • Bbm
    • Bm
    • Cm
    • C#m
    • Dm
    • Ebm
    • Em
    • Fm
    • F#m
    • Gm
    • G#m
  • Adicionar à lista

    0 comentários

    Ver todos os comentários
    00:00 / 00:00
    Outros vídeos desta música
    Repetir Qualidade Automático
    Outros vídeos desta música
    00:00 / 00:00
    Automático

    Cifra Club Pro

    Aproveite o Cifra Club com benefícios exclusivos e sem anúncios
    Cifra Club Pro
    Aproveite o Cifra Club com benefícios exclusivos e sem anúncios
    OK