Cifra Club

River

Miley Cyrus

Cifra: Principal (violão e guitarra)
Selo Cifra Club: esta cifra foi revisada para atender aos critérios oficiais da nossa Equipe de Qualidade.
tom: E
[Intro] A7M  B  C#m  B7
        A7M  B  C#m 

[Tab - Acordes Intro]

     A7M    B        C#m    B7
E|---4------2--------4------5---------------|
B|---2------4--------5------4---------------|
G|---2------4--------6------4---------------|
D|---2------4--------6------4---------------|
A|------------------------------------------|
E|------------------------------------------|

     A7M    B        C#m  
E|---4------2--------4----------------------|
B|---2------4--------5----------------------|
G|---2------4--------6----------------------|
D|---2------4--------6----------------------|
A|------------------------------------------|
E|------------------------------------------|

[Tab - Solo Intro]

E|------------------------------------------|
B|------------------------------------------|
G|------------------------------------------|
D|-7-7-7-7----7-7-7-7----7-7-7-7----9-9-9-9-|
A|------------------------------------------|
E|------------------------------------------|

E|------------------------------------------|
B|------------------------------------------|
G|------------------------------------------|
D|-11-11-11-11----11-11-11-11---11-11-11-11-|
A|------------------------------------------|
E|------------------------------------------|

E|-----4------------------------------------|
B|-5-7---5-7--------------------------------|
G|------------------------------------------|
D|------------------------------------------|
A|------------------------------------------|
E|------------------------------------------|

[Primeira Parte]

A5                                    
   I got a new dress just
    B5           C#5
To meet you downtown

Can you walk me through the park
          B5
Just to show it off?
A5                                  
   I can pull my hair back in that
 B5                 C#5
Tight way that you like

If you wrap me in your
          B5
Arms and never stop

[Pré-Refrão]

A7M                                
    Heart beats so loud that
       B         C#m7
It's drownin’ me out
             B7
Livin' in an April shower
A7M                              
    You're pourin’ down
        B      C#m7
Baby, drown me out (oh, oh, oh)

[Refrão]

[Tab - Frase 1]

E|-----------------------------------------|
B|-----------------------------------------|
G|-----------------------------------------|
D|-2---1-----------------------------------|
A|--------4--2-----------------------------|
E|--------------5-4-2----------------------|

        B7          A7M
You're just like a river

(oh, oh, oh)
        B           C#m7
You're just like a river

(oh, oh, oh)
     B7      A7M
You go on forever
        B           E    (Frase 1)
You're just like a river

[Segunda Parte]

A5                                        
   Blowing bubbles in the bath
          B5                C#5
I can't stop from thinking lately

You could be the one
          B5          A5
Have the honor of my babies

Hope they have your eyes
           B5
And that crooked smile
C#5                                     
    Was a desert 'fore I met you
      B5
I was in a drought

[Pré-Refrão]

A7M                                
    Heart beats so loud that
       B         C#m7
It's drownin’ me out
             B7
Livin' in an April shower
A7M                              
    You're pourin’ down
        B      C#m7
Baby, drown me out (oh, oh, oh)

[Refrão]

        B7          A7M
You're just like a river

(oh, oh, oh)
        B           C#m7
You're just like a river

(oh, oh, oh)
     B7      A7M
You go on forever
        B           E    (Frase 1)
You're just like a river

[Ponte]

[Tab - Ponte]

E|------12--14--11----12-11-12--------------|
B|--10--------------------------------------|
G|------------------------------------------|
D|------------------------------------------|
A|------------------------------------------|
E|------------------------------------------|

E|------------------------------------------|
B|------------------------------------------|
G|------------------------------------------|
D|-9-9-9-9---9-9--------9-7-6---6-----------|
A|----------------------------9---7---------|
E|------------------------------------------|

F#m  E/G#                        A  B
          You're never runnin’ dry

[Terceira Parte]

   A5
I feel you everywhere
                        B5
Your face is all in my hair
 C#5
Covered up in your sweat
                         B5      A5
It turns me on that you care, baby
                     B5          C#5
Your love, it flows just like a river

[Refrão]

                    A7M
You're just like a river

(That's what you are)
        B           C#m7
You're just like a river

(That's what you are)
        B7          A7M
You're just like a river

(That's what you are)
        B           C#m7
You're just like a river

        B7          A7M
You're just like a river

(Heart beats so loud that

It's drownin’ me out)
        B           C#m7
You're just like a river

(Livin' in an April shower)
     B7      A7M
You go on forever

(You're pourin’ down)
        B           E
You're just like a river

(Baby, drown me out)

[Tab - Final]

E|-----4-----------------------------------|
B|-5-7---5-7-------------------------------|
G|-----------------------------------------|
D|-----------------------------------------|
A|-----------------------------------------|
E|-----------------------------------------|
Outros vídeos desta música
    1.495 exibições
    • Simplificar cifra
      • ½ Tom
      • A
      • Bb
      • B
      • C
      • Db
      • D
      • Eb
      • E
      • F
      • F#
      • G
      • Ab
    • Adicionar à lista

    Afinação da cifra

    Afinador online

      0 comentários

      Ver todos os comentários

      Entre para o Cifra Club PRO

      Tenha acesso a benefícios exclusivos no App e no Site

      • Chega de anúncios

      • Badges exclusivas

      • Mais recursos no app do Afinador

      • Atendimento Prioritário

      • Aumente seu limite de lista

      • Ajude a produzir mais conteúdo

      Cifra Club Pro

      Aproveite o Cifra Club com benefícios exclusivos e sem anúncios
      Cifra Club Pro
      Aproveite o Cifra Club com benefícios exclusivos e sem anúncios
      Ops (: Contenido disponible sólo en portugués.
      OK