Cifra Club

Oceans Apart

Milk Inc.

Cifra: Principal (violão e guitarra)
Selo Cifra Club: esta cifra foi revisada para atender aos critérios oficiais da nossa Equipe de Qualidade.
tom: Am
Intro: 

E|--------8--7----------8--7-------------------------|
B|---------------8--10-------8--10---8--6--8--5------|
G|---------------------------------------------------|
D|---------------------------------------------------|
A|---------------------------------------------------|
E|---------------------------------------------------|

E|-----8--7-------8--7--8--10------------------------|
B|----------8--10-------------8--8-7/5--4/1----------|
G|---------------------------------------------------|
D|---------------------------------------------------|
A|---------------------------------------------------|
E|---------------------------------------------------|




Am
Six o'clock in the morning,
C
A plane just touched the ground.
G
My body is here but my heart stays there,
F
'cause it knows what I've found.

Am
Eight o'clock in the morning,
C
A taxi drives uptown.
G
The city hides her lonely tears,
F
'cause it knows what I've found.

C                 G
Oceans apart,
Am         F        
I'm still thinking of you,
C                G
Tears in my heart,
Am           F
All my dreams up torn in two.

Am
Eight o'clock in the evening,
C
the phone just lies around.
G
Friends they come and understand,
F
'cause they know what I've found.

Am
It's two after midnight
C
I'm woken by a sound.
G
I look outside there's no one there,
F
that knows just what I've found.

C                 G
Oceans apart,
Am         F        
I'm still thinking of you,
C                G
Tears in my heart,
Am           F
All my dreams up torn in two.

F                  G
As the sun touches the ocean,
Am
I know it touches you.
F                                    Dm
As clouds embrace the moonlight,
G
I still think of you.
(x2)
Outros vídeos desta música
    6 exibições
      • ½ Tom
      • Am
      • Bbm
      • Bm
      • Cm
      • C#m
      • Dm
      • Ebm
      • Em
      • Fm
      • F#m
      • Gm
      • G#m
    • Adicionar à lista

    Afinação da cifra

    Afinador online

      0 comentários

      Ver todos os comentários

      Entre para o Cifra Club PRO

      Tenha acesso a benefícios exclusivos no App e no Site

      • Chega de anúncios

      • Mais recursos no app do Afinador

      • Atendimento Prioritário

      • Aumente seu limite de lista

      • Ajude a produzir mais conteúdo

      Cifra Club Pro

      Aproveite o Cifra Club com benefícios exclusivos e sem anúncios
      Cifra Club Pro
      Aproveite o Cifra Club com benefícios exclusivos e sem anúncios
      OK