Cifra Club

Run

Milk Inc.

Cifra: Principal (violão e guitarra)
Selo Cifra Club: esta cifra foi revisada para atender aos critérios oficiais da nossa Equipe de Qualidade.
tom: Cm
E|--------7--------7--------------6--------6--------------4--------4--------------4-----4--1--2--1--|
B|--2--4-----2--4-----2--4--2--4-----2--4-----2--4--2--4-----2--4-----2--4--2--4-----2--------------|
G|--------------------------------------------------------------------------------------------------|
D|--------------------------------------------------------------------------------------------------|
A|--------------------------------------------------------------------------------------------------|
E|--------------------------------------------------------------------------------------------------|


                                            ALTERNATE


Version 2:

E|--------7--------7--------------6--------6--------------------------------------------------------|
B|--------------------------------------------------------9--------9--------------9-----9--6--7--6--|
G|--6--8-----6--8-----6--8--6--8-----6--8-----6--8--6--8-----6--8-----6--8--6--8-----6--------------|
D|--------------------------------------------------------------------------------------------------|
A|--------------------------------------------------------------------------------------------------|
E|--------------------------------------------------------------------------------------------------|
Outros vídeos desta música
    14 exibições
      • ½ Tom
      • Am
      • Bbm
      • Bm
      • Cm
      • C#m
      • Dm
      • Ebm
      • Em
      • Fm
      • F#m
      • Gm
      • G#m
    • Adicionar à lista

    Afinação da cifra

    Afinador online

      0 comentários

      Ver todos os comentários

      Entre para o Cifra Club PRO

      Tenha acesso a benefícios exclusivos no App e no Site

      • Chega de anúncios

      • Mais recursos no app do Afinador

      • Atendimento Prioritário

      • Aumente seu limite de lista

      • Ajude a produzir mais conteúdo

      Cifra Club Pro

      Aproveite o Cifra Club com benefícios exclusivos e sem anúncios
      Cifra Club Pro
      Aproveite o Cifra Club com benefícios exclusivos e sem anúncios
      OK