Cifra Club

Battery Check

Millencolin

Cifra: Principal (violão e guitarra)
tom: B
Intro:4x 
Base: B  D  A 

                                       (RIFF 1)
-----------------------------------------------------------------------------------------------------------------|
-----------------------------------------------------------------------------------------------------------------|
11-11-11-11-11-11-11-11-11-11-14-14-14-12-12-12-12-12-12-12-12-12-12-12-12-11-11-11-12-12-12-9-9-9-9-9-9-9-9-9---|
-9-9-9-9-9-9-9-9-9-9-9-9-9-9-9-9-12-12-12-12-12-12-12-12-12-12-12-12-12-12-12-12-12-12-12-12-12-7-7-7-7-7-7-7-7-7|
-----------------------------------------------------------------------------------------------------------------|
-----------------------------------------------------------------------------------------------------------------|

B
Walking around the streets of Linne
D 
Reloading batteries in my way
E                                               G 
Nobody around here would know who I am
               B  D  A
That's o.k 

B
I really wanna do something new
        D
Just anything different to get into
          E                    G
It's all up to me to give it a try
             E                                  G 
That it's all up to me is making me terrifed
E                                                 G                                      D
It looks like I'll be waiting for moments that will never arrive

(RIFF 2)

B|-------7------|
G|-------7------|
D|-------7------|

D                           B
When will I live my life for me? 
            G
When will I do what I want to do? 
D                           B
When will I let myself be free 
                   G
And take care of things that I value? 
E                       G
So when will I live my life just for me? Just for me?

    (RIFF 1)  COM B  D  A
---------------------------------------------------------------------------------------------------------------|
-----------------------------------------------------------------------------------------------------------------|
11-11-11-11-11-11-11-11-11-11-14-14-14-12-12-12-12-12-12-12-12-12-12-12-12-11-11-11-12-12-12-9-9-9-9-9-9-9-9-9---|
-9-9-9-9-9-9-9-9-9-9-9-9-9-9-9-9-12-12-12-12-12-12-12-12-12-12-12-12-12-12-12-12-12-12-12-12-12-7-7-7-7-7-7-7-7-7|
-----------------------------------------------------------------------------------------------------------------|
--------------------------------------------------------------------------------------------------------------|

             B  
Hitting P.B. driving E20 north
                         D
Future plans being made going back and forth
        E                                          G 
Remain passive I do got dreams on my mind
          B                       
And I really should be taking a chance
    D
Risk my safety just for once advance 
         E                                              G
 The one who is trying is the one who suceeds
E                                          G 
I should be following my heart and my needs
           E                     G
But I know it's a problem for me to translate words into deeds 

(RIFF 2)

B|-------7------|
G|-------7------|
D|-------7------|

When will I live my life for me? 
When will I do what I want to do? 
When will I let myself be free 
And take care of things that I value? 
E                       G
So when will I live my life just for me? 

               (RIFF 3 COM OITAVADA)

D / E / F# / D                                               F# / C#/D
               Please say you feel the same way 
                                                   D / E / F# / D 
               Just say you know exactly how I feel
                                                      E
                So say you feel the same way
                       F          G
                And I will do it for real 

            (RIFF 4)

--------------------------------------------------------------------------------------|
--------------------------------------------------------------------------------------|
11-11-11-11-11-11-14-14-14-12-12-12-12-12-12-12-12-12-12-14-14-14-14-14-14-14-14------|
9-9-9-9-9-9-9-9-9-9-12-12-12-12-12-12-12-12-12-12-12-12-12-12-12-12-12-12-12-12-12----|
--------------------------------------------------------------------------------------|
--------------------------------------------------------------------------------------|

D
When will live my life for me? 
B                               G
When will I do what I want to do? 
D
When will I let myself be free
B                            G
And take care of things that I value?
 
It's true.
D 
I need to forgive myself and see 
B                 G
It's not too late for someting new
E                 G 
So when will I live my life just for me?
 E                 G
Yeah when will I live my life just for me? 
 E                         G     
Yeah maybe I'll live my life just for me?

END IN D
00:00 / 00:00
Outros vídeos desta música
Repetir
Outros vídeos desta música
Composição de Mathias Färm / Nikola Sarcevic
Colaboração e revisão:
  • steingt s
8.207 exibições
    • ½ Tom
    • A
    • Bb
    • B
    • C
    • Db
    • D
    • Eb
    • E
    • F
    • F#
    • G
    • Ab
  • Adicionar à lista

    0 comentários

    Ver todos os comentários

    Conseguiu tocar?

    0 Tocaram 0 Ainda não

    Grave um vídeo tocando Battery Check e nos envie!

    Entre para oCifra Club PRO

    Tenha acesso a benefícios exclusivos no App e no Site

    • Chega de anúncios

    • Prioridade de compra em lançamentos

    • Mais recursos no app do Afinador

    • Atendimento Prioritário

    • Descontos nos produtos Cifra Club

    • Ajude a produzir mais conteúdo

    00:00 / 00:00

    Cifra Club Pro

    Aproveite o Cifra Club com benefícios exclusivos e sem anúncios
    Cifra Club Pro
    Aproveite o Cifra Club com benefícios exclusivos e sem anúncios
    OK