Cifra Club

Black Gold

Millencolin

Cifra: Principal (violão e guitarra)
tom: G
INTRO:

GUITAR1:

E|--------------------------------------------------------------------------
B|--------------------------------------------------------------------------
G|--------------------------------------9-9-9-9--7-7-7-7--9-9-9-9--7-7-7-7--
D|--9-9-9-9--7-7-7-7--5-5-5-5--7-7-7-7--------------------------------------
A|--------------------------------------7-7-7-7--5-5-5-5--7-7-7-7--5-5-5-5--
E|--7-7-7-7--5-5-5-5--3-3-3-3--5-5-5-5--------------------------------------

(Repeat)

GUITAR2:

E |---------------------------------------
B |---------------------------------------
G |---------------------------------------
D |--9-9-9-9--7-7-7-7--9-9-9-9--7-7-7-7---
A |---------------------------------------
E |--7-7-7-7--5-5-5-5--7-7-7-7--5-5-5-5---

E |-----------------------------------------------
B |-----------------------------------------------
G |--9-9-9-9--7-7-7-7--12-12-12-12--11-11-11-11---
D |-----------------------------------------------
A |--7-7-7-7--5-5-5-5--10-10-10-10---9--9--9--9---
E |-----------------------------------------------

(Repeat)

VERSE: (Only bass in the beginning:)
G, C, D-Eii, Eii-D
G, B, D-Eii, Eii-D

CHORUS:
B, D
Gii, F#ii, Eii, D
B, D
G

VERSE:
G, B, D-Eii, Eii-D (x2)
G, C, D-Eii, Eii-D
G, B, D-Eii, Eii-D

CHORUS:
B, D
Gii, F#ii, Eii, D
(Repeat)

BRIDGE:
Eii, C (x2) D

RIFF1: (Same as the intro:) (Repeat a couple of times:)

BRIDGE2:
E, C
E-B-C-D, Eii, D

OUTRO:
G, B, D-Eii, Eii-D (x2) G
00:00 / 00:00
Outros vídeos desta música
Repetir
Outros vídeos desta música
Composição de Nikola Sarcevic
3.257 exibições
    • ½ Tom
    • A
    • Bb
    • B
    • C
    • Db
    • D
    • Eb
    • E
    • F
    • F#
    • G
    • Ab
  • Adicionar à lista

    0 comentários

    Ver todos os comentários

    Conseguiu tocar?

    0 Tocaram 0 Ainda não

    Grave um vídeo tocando Black Gold e nos envie!

    Entre para oCifra Club PRO

    Tenha acesso a benefícios exclusivos no App e no Site

    • Chega de anúncios

    • Prioridade de compra em lançamentos

    • Mais recursos no app do Afinador

    • Atendimento Prioritário

    • Descontos nos produtos Cifra Club

    • Ajude a produzir mais conteúdo

    00:00 / 00:00

    Cifra Club Pro

    Aproveite o Cifra Club com benefícios exclusivos e sem anúncios
    Cifra Club Pro
    Aproveite o Cifra Club com benefícios exclusivos e sem anúncios
    OK