Cifra Club

Botanic Mistress

Millencolin

Cifra: Principal (violão e guitarra)
tom: C
INTRO

   C    C    C    C
e|-------------------|
B|-------------------|
G|-5----5----5----5--| REPEAT MORE FASTER
D|-5----5----5----5--|
A|-3----3----3----3--|
E|-------------------|

   G   G   G   G G G
e|-------------------|
B|-------------------|
G|-------------------|
D|-5---5---5---5-5-5-| IN PALM MUTE AT START
A|-5---5---5---5-5-5-|
E|-3---3---3---3-3-3-|

CHORUS
    C C C C F F G G              C C Em Em  F  F  G  G  C  F  C  
e|-------------------|       e|---------------------------------|
B|-------------------|       B|---------------------------------|
G|--5-5-5-5----------|       G|--5-5--2--2--------------5-----5-|
D|--5-5-5-5-3-3-5-5--|       D|--5-5--2--2--3--3--5--5--5--3--5-|
A|--3-3-3-3-3-3-5-5--|       A|--3-3--0--0--3--3--5--5--3--3--3-|
E|----------1-1-3-3--| (2x)  E|-------------1--1--3--3-----1----|

VERSE 1:
   A    F    C  F  C  F            A    F    G 
e|----------------------|      e|----------------|
B|----------------------|      B|----------------| 
G|-----------5-----5----|      G|----------------|
D|-7----3----5--3--5--3-|      D|--7----3----5---|
A|-7----3----3--3--3--3-|      A|--7----3----5---|
E|-5----1-------1-----1-| (3x) E|--5----1----3---|

(CHORUS*)

VERSE 2:

    A    G F                      A    G    F              G 
e|-------------|              e|----------------|       e|---|
B|-------------|              B|----------------|       B|---| 
G|-------------|              G|----------------|       G|---|
D|--7----5/3---|              D|--7----5----3---|       D|-5-|
A|--7----5/3---|              A|--7----5----3---|       A|-5-|
E|--5----3/1---| (2x)         E|--5----3----1---|       E|-3-|

SOLO
I don´t tab the solo but i'll tab soon

LAST VERSE
    A    G    F               G
e|----------------|        e|---|  
B|----------------|        B|---|
G|----------------|        G|---|
D|--7----5----3---|        D|-5-|
A|--7----5----3---|        A|-5-|
E|--5----3----1---| (2x)   E|-3-|

(CHORUS*)
00:00 / 00:00
Outros vídeos desta música
Repetir
Outros vídeos desta música
Composição de Nikola Sarcevic
Colaboração e revisão:
  • Igor Alexander
1.827 exibições
    • ½ Tom
    • A
    • Bb
    • B
    • C
    • Db
    • D
    • Eb
    • E
    • F
    • F#
    • G
    • Ab
  • Adicionar à lista

    0 comentários

    Ver todos os comentários

    Conseguiu tocar?

    0 Tocaram 0 Ainda não

    Grave um vídeo tocando Botanic Mistress e nos envie!

    Entre para oCifra Club PRO

    Tenha acesso a benefícios exclusivos no App e no Site

    • Chega de anúncios

    • Prioridade de compra em lançamentos

    • Mais recursos no app do Afinador

    • Atendimento Prioritário

    • Descontos nos produtos Cifra Club

    • Ajude a produzir mais conteúdo

    00:00 / 00:00

    Cifra Club Pro

    Aproveite o Cifra Club com benefícios exclusivos e sem anúncios
    Cifra Club Pro
    Aproveite o Cifra Club com benefícios exclusivos e sem anúncios
    OK