Cifra Club

Buzzer

Millencolin

Cifra: Principal (violão e guitarra)
tom: A
e-|--------------------------------------------------------------------|
B-|--------------------------------------------------------------------|
G-|-7-7-7-9-9-9-9-9--6-6-6-7-7-7-6-6--7-7-7-9-9-9-7-7--6-6-6-7-7-7-6-6-|
D-|-9-9-9-9-9-9-7-7--7-7-7-7-7-7 7-7--5-5-5-5-5-5-5-5--7-7-7-7-7-7-7-7-|
A-|--------------------------------------------------------------------|
E-|--------------------------------------------------------------------|play 2x        

2:nd guitar begins after intro has been played once 
e-|---------------------------------------------------10-10-10------------|
B-|------------------------------------------------------------10-10-10---|
G-|---------------------------------------------------------------------9-|
D-|-9-9-9-9-9-9-9-9-9-9-9-9-9-9-9-9-9-9-9-9-9-9-9-9-9---------------------|
A-|-9-9-9-9-9-9-9-9-9-9-9-9-9-9-9-9-9-9-9-9-9-9-9-9-9---------------------|
E-|-7-7-7-7-7-7-7-7-7-7-7-7-7-7-7-7-7-7-7-7-7-7-7-7-7---------------------|

Intro 2:nd riff:1:st guitar

e-|----------------------|
B-|----------------------|
G-|-7----7----7----6-7-6-|
D-|----------------------|
A-|----------------------|
E-|----------------------| 

Play 2xIntro 2:nd riff2:ndguitar

e-|------------------|
B-|------------------|
G-|------------------|
D-|-9----7----5----7-|
A-|------------------|
E-|------------------|

Interlude 1stguitar

e-|------------------------------------------------------|------------|
B-|-7---7-10-7---7------------7---7-10-7-10-10-8-7---7---|-10-8-7---7-|
G-|---9--------9---9-7-6-7-9----9------------------9---9-|--------9---|
D-|------------------------------------------------------|------------|
A-|------------------------------------------------------|------------|
E-|------------------------------------------------------|------------|                     
2xInterlude 2nd guitar

e-|--------------------------------------------------|-----------|
B-|--------------------------------------7-----------|-7---------|
G-|-7-6-7-9-7-6-7-6-------6--7-6-7-9-7-9---9-7-6-7-6-|---9-7-6-7-|
D-|-----------------9-7-9----------------------------|-----------| A-|--------------------------------------------------|-----------| E-|--------------------------------------------------|-----------|                                           2x 
e-|---------------|
B-|---------------|
G-|---------------|
D-|-9-9--9-9--9-9-|
A-|-9-9--9-9--9-9-|
E-|-7-7--7-7--7-7-|

Vers:     B      B    D# D    A

e-|------------------|
B-|------------------|
G-|-------6-7--------|
D-|-9-----6-7------7-|
A-|-9-----4-5------7-|
E-|-7--------------5-|

4x Chorus:Part 1 (we're not having fun)
e-|-------------------------|  
B-|-------------------------| 
G-|-------------------------|
D-|-5------9-------5------7-| 
A-|-5------9-------5------7-| 
E-|-3------7-------3------5-|

Chorus: Part 2

e-|-------------------------|  
B-|-------------------------| 
G-|-------6-7---------------|
D-|-9-----6-7------5------7-| 
A-|-9-----4-5------5------7-| 
E-|-7--------------3------5-| 

Then play interlude, chorus part 1 and 2, then end.
00:00 / 00:00
Outros vídeos desta música
Repetir
Outros vídeos desta música
Composição de Erik / Larzon / Mathias / Nikola / Nikola Sarcevic
3.060 exibições
    • ½ Tom
    • A
    • Bb
    • B
    • C
    • Db
    • D
    • Eb
    • E
    • F
    • F#
    • G
    • Ab
  • Adicionar à lista

    0 comentários

    Ver todos os comentários

    Conseguiu tocar?

    0 Tocaram 0 Ainda não

    Grave um vídeo tocando Buzzer e nos envie!

    Entre para oCifra Club PRO

    Tenha acesso a benefícios exclusivos no App e no Site

    • Chega de anúncios

    • Prioridade de compra em lançamentos

    • Mais recursos no app do Afinador

    • Atendimento Prioritário

    • Descontos nos produtos Cifra Club

    • Ajude a produzir mais conteúdo

    00:00 / 00:00

    Cifra Club Pro

    Aproveite o Cifra Club com benefícios exclusivos e sem anúncios
    Cifra Club Pro
    Aproveite o Cifra Club com benefícios exclusivos e sem anúncios
    OK