Cifra Club

Come On

Millencolin

Cifra: Principal (violão e guitarra)
tom: C
Gtr.Legends:
. - palm muting
~ - let it ring

Gtr.Tuning:Standard(Normal)

Intro:
e|------------------------|
B|-----------44444--------|
G|-----------22222--------| 2x
D|------5555-------5555---|
A|-5555-3333-------3333---|
E|-3333-------------------|
   .... .... ..... ....

Verse 1:There's something
Gtr.1:Play Intro

Verse 1 Continuation:Come on,come on...
Gtr.1:
e|-----------------------       -------3~---|
B|-----------44444-------       -------4~---|
G|-----------22222------- 4x    -5555--5~---| 
D|------5555-------5555-- Então -5555--5~---|
A|-5555-3333-------3333--       -3333--3~---|
E|-3333------------------       ------------|
   .... .... ..... ....

Gtr.2:
e|-----------------------------------------------------              -------3~---|
B|--------12------------12-----------12----------12---- Repita       -------4~---|
G|-----12----12------12----12-----12---12-----12---12-- várias vezes -5555--5~---|
D|----------------------------------------------------- Então        -5555--5~---|
A|-10-------------10-----------10----------10----------              -3333--3~---|
E|-----------------------------------------------------              ------------|

Pre-Verse 2:
Gtr.1:Play Intro

Gtr.2:
e|-----------------------------|
B|-----------------------------|
G|-----------------------------|
D|-------------222-------------|
A|-------333-5-----2-333-2-0---|
E|-333-5-----------------------|

Verse 2:
Play Intro

Repeat Verse 1 Continuation:

Bridge:Now we all long...
e|--------------       ------------|
B|--------------       ------------|
G|-77777-55555-- 4x    -77777-7~---|
D|-77777-55555-- Então -77777-7~---|
A|-55555-33333--       -55555-5~---|
E|--------------       ------------|

Verse 3:There's somethong...
Play Intro

Repeat Verse 1 Continuation:

Last Chord:
e|-3~---|
B|-3~---|
G|-0~---|
D|-0~---|
A|-2~---|
E|-3~---|

End...


Come On Lyrics:

Verse 1:
There's something in the air tonight, it's hard to define.
There's gleam on every traffic light, like some kind of sign.
So if you're ready for a thrill, we do not have much time to kill.
Oh, it's the right time to advance, so let's take a chance.

Verse 1 Continuation:
Come on, come on, come on,
We got to make a try.
And dream on, dream on, dream on,
It's easy as pry.
We got to make a try,
So please, come on.

Verse 2:
Let's venture out into the light, let's get up the nerve.
And gamble if the feeling's right, it's what we deserve.
You got the efforts to improve, so come on and make a move (And make a move).
In your eyes I see a spark, was a shot in the dark.

Repeat Verse 1 Continuation:

Bridge:
Now we all long for a good distraction,
To get us through the trip,
What's in the wall? We need some kind of action,
An opportunity to get away.
Now we all long for a new attraction,
Something to focus on,
To get by, to get us through the trip for the sky,
Together we can make a choice.
So come on...

Verse 3:
There's something in the air tonight, it's hard to define.
Yeah, there's gleam on every traffic light, it must be a sign.

So come on, come on, come on,
We got to make a try.
(Come on, come on, come on,
We got to make a try).
And dream on, dream on, dream on,
It's easy as pry.
(Dream on, dream on, dream on,
It's easy as pry).

Come on, come on, come on,
We got to make a try.
(Come on, come on, come on,
We got to make a try).
And dream on, dream on, dream on,
It's easy as pry.
(Dream on, dream on, dream on,
It's easy as pry).

We got to make a try,
We got to make a try,
We got to make a try,
It's easy as pry.

Yeah, come on, come on, come on.
Come on, come on.
(Come on, come on, come on.
Come on, come on).
Yeah, come on, come on, come on.
Come on, come on.
00:00 / 00:00
Outros vídeos desta música
Repetir
Outros vídeos desta música
Composição de Nikola Sarcevic
Colaboração e revisão:
  • Evaldo Heber
603 exibições
    • ½ Tom
    • A
    • Bb
    • B
    • C
    • Db
    • D
    • Eb
    • E
    • F
    • F#
    • G
    • Ab
  • Adicionar à lista

    0 comentários

    Ver todos os comentários

    Conseguiu tocar?

    0 Tocaram 0 Ainda não

    Grave um vídeo tocando Come On e nos envie!

    Entre para oCifra Club PRO

    Tenha acesso a benefícios exclusivos no App e no Site

    • Chega de anúncios

    • Prioridade de compra em lançamentos

    • Mais recursos no app do Afinador

    • Atendimento Prioritário

    • Descontos nos produtos Cifra Club

    • Ajude a produzir mais conteúdo

    00:00 / 00:00

    Cifra Club Pro

    Aproveite o Cifra Club com benefícios exclusivos e sem anúncios
    Cifra Club Pro
    Aproveite o Cifra Club com benefícios exclusivos e sem anúncios
    OK