Cifra Club

Dance Craze

Millencolin

Cifra: Principal (violão e guitarra)
tom: F
Intro riff:

    A           F         G         C   B
 
e-|-----------------------------------------|
B-|-----------------------------------------|          p = pull off
G-|-2-2-----------------------------5-5-4-4-|
D-|-2-2---------3-3-------5-5-------5-5-4-4-|
A-|-0-0-0-3p2p0-3-3-3p2p0-5-5-3p2p0-3-3-2-2-| 
E-|-------------1-1-------3-3---------------| repeat 
                             

1st and 2nd verse

e-|-----------------------------------------|
B-|-----------------------------------------|
G-|-2-2-----------------------------5-5-4-4-|
D-|-2-2------2-3-3------3-5-5-----5-5-5-4-4-|
A-|-0-0------0-3-3------3-5-5-----5-3-3-2-2-| 
E-|------------1-1------1-3-3-----3---------| repeat


4 times inro riff with vocals


  Someone told me bad boys...

e-|--------------------------------------------------|
B-|--------------------------------------------------|
G-|-2-2-2----------------------5-5-5-------------5-4-|
D-|-2-2-2--------3-3-3---------5-5-5--------5----5-4-|
A-|-0-0-0--------3-3-3---------3-3-3--------5----3-2-| 
E-|--------------1-1-1----------------------3--------| repeat


chorus

    A         F         C         G

e-|-----------------------------------------|
B-|-----------------------------------------|
G-|-2-2-2-2-2-----------5-5-5-5-5-----------|
D-|-2-2-2-2-2-3-3-3-3-3-5-5-5-5-5-5-5-5-5-5-|
A-|-0-0-0-0-0-3-3-3-3-3-3-3-3-3-3-5-5-5-5-5-| 
E-|-----------1-1-1-1-1-----------3-3-3-3-3-|


solo                                 ( ) = bend x3             / = slide

e-|---------------------------------------------------------------------|
B-|----------------------------------------------------------------10-8-|
G-|-------------------------------------/9--9h10--9-7-------7-9-10------|
D-|----------------------------7-5--------------------11-11-------------|
A-|-/7-5-7-7-7-7-8-7-5---5-7-8------------------------------------------| 
E-|--------------------8------------------------------------------------|


e-|-/12-12-13-12----------15--------------------------------------------|
B-|-----------15-13-13-12----13-------------------------------12-12(11)-|
G-|-----------------------------12--12(14)------------------------------|
D-|----------------------------------------10-10-9-10-12-10-------------|
A-|---------------------------------------------------------------------| 
E-|---------------------------------------------------------------------|

vibrato on note (14) at bend.

back to chorus, ends with...

e-|------------------------------------------------|
B-|------------------------------------------------|
G-|------2-2-----------------------------5-5-4-4-2-|
D-|------2-2------2-3-3------3-5-5-----5-5-5-4-4-2-|
A-|-/3-2-0-0------0-3-3------3-5-5-----5-3-3-2-2-0-| 
E-|-----------------1-1------1-3-3-----3-----------|
00:00 / 00:00
Outros vídeos desta música
Repetir
Outros vídeos desta música
Composição de Millencolin / Nikola Sarcevic
5.246 exibições
    • ½ Tom
    • A
    • Bb
    • B
    • C
    • Db
    • D
    • Eb
    • E
    • F
    • F#
    • G
    • Ab
  • Adicionar à lista

    0 comentários

    Ver todos os comentários

    Conseguiu tocar?

    0 Tocaram 0 Ainda não

    Grave um vídeo tocando Dance Craze e nos envie!

    Entre para oCifra Club PRO

    Tenha acesso a benefícios exclusivos no App e no Site

    • Chega de anúncios

    • Prioridade de compra em lançamentos

    • Mais recursos no app do Afinador

    • Atendimento Prioritário

    • Descontos nos produtos Cifra Club

    • Ajude a produzir mais conteúdo

    00:00 / 00:00

    Cifra Club Pro

    Aproveite o Cifra Club com benefícios exclusivos e sem anúncios
    Cifra Club Pro
    Aproveite o Cifra Club com benefícios exclusivos e sem anúncios
    OK