Cifra Club

Devil Me

Millencolin

Cifra: Principal (violão e guitarra)
tom: C
Intro:

e-|-------|
B-|-------|
G-|-5-5-5-|
D-|-5-5-5-|
A-|-3-3-3-|
E-|-------| x1

1st Verse:

e-|-----------------------------------------------------------------|
B-|-----------------------------------------------------------------|
G-|-----------------5-5-5-5-5-5-4-4---------5-5-5-5-----------------|
D-|-5-5-5-5-5-5-5-5-5-5-5-5-5-5-4-4-7-7-7-7-5-5-5-5-5-5-5-5-5-5-5-5-|
A-|-5-5-5-5-5-5-5-5-3-3-3-3-3-3-2-2-7-7-7-7-3-3-3-3-5-5-5-5-5-5-5-5-|
E-|-3-3-3-3-3-3-3-3-----------------5-5-5-5---------3-3-3-3-3-3-3-3-| 1x

Interlude:1st Guitar (All this I adore, but at the same time it's just me...)
e-|-----------------------------------------------------------------------|
B-|-----------------------------------------------------------------------|
G-|----------7-7-7-7--5-5-5-5--------------------7-7-7-7--7-7-7-7-7-7-7-7-|
D-|-2-2-2-2--7-7-7-7--5-5-5-5--5-5-5-5--2-2-2-2--7-7-7-7--7-7-7-7-7-7-7-7-|
A-|-2-2-2-2--5-5-5-5--3-3-3-3--5-5-5-5--2-2-2-2--5-5-5-5--5-5-5-5-5-5-5-5-|
E-|-0-0-0-0--------------------3-3-3-3--0-0-0-0---------------------------|

2nd Guitar:
e-|-12-12--12-12-12--12-12-12--12-12-12--12-12-12--12-12-12--12--14-14-|
B-|-12-12--12-12-12--12-12-12--12-12-12--12-12-12--12-12-12--12--12-12-|
G-|--------------------------------------------------------------------|
D-|--------------------------------------------------------------------|
A-|--------------------------------------------------------------------|
E-|--------------------------------------------------------------------|

e-|-14-14-14--14--12-12--12-12-12--12--14-14--14-14-14--14--15-15-15-15-15-15-|
B-|-12-12-12--12--12-12--12-12-12--12--12-12--12-12-12--12--13-13-13-13-13-13-|
G-|---------------------------------------------------------------------------|
D-|---------------------------------------------------------------------------|
A-|---------------------------------------------------------------------------|
E-|---------------------------------------------------------------------------|

1st Chorus:1st Guitar
e-|--------------------------------------------|
B-|--------------------------------------------|
G-|----------7-7-7-7--9-9-9-9------------------|
D-|-5-5-5-5--7-7-7-7--9-9-9-9--5--5-5-5-5-7--5-|
A-|-5-5-5-5--5-5-5-5--7-7-7-7------------------|
E-|-3-3-3-3------------------------------------|

e-|------------------------------------|
B-|------------------------------------|
G-|----------7-7-7-7--9-9-9-9--5-5-5-5-|
D-|-5-5-5-5--7-7-7-7--9-9-9-9--5-5-5-5-|
A-|-5-5-5-5--5-5-5-5--7-7-7-7--3-3-3-3-|
E-|-3-3-3-3----------------------------|  

e-|----------------------------------|
B-|----------------------------------|
G-|----------5-5-5-5-----------------|
D-|-7-7-7-7--5-5-5-5--5--------------|
A-|-7-7-7-7--3-3-3-3--5--------------|
E-|-5-5-5-5-----------3--------------|
                      Hold...........
2nd Guitar:

e-|------------------------------------|
B-|------------------------------------|
G-|----------7-7-7-7-----------5-5-5-5-|
D-|-5-5-5-5--7-7-7-7--2-2-2-2--5-5-5-5-|
A-|-5-5-5-5--5-5-5-5--2-2-2-2--3-3-3-3-|
E-|-3-3-3-3-----------0-0-0-0----------|1x

e-|--------------------------------------------------|
B-|--------------------------------------------------|
G-|--------------------------------------------------|
D-|-5--5-5-5--7--4--4-4-4-4-5-----------4-5--5-5-5-5-|
A-|---------------------------7--7-7-7---------------|
E-|--------------------------------------------------|x1
e-|----------------------------------|
B-|----------------------------------|
G-|----------5-5-5-5-----------------|
D-|-7-7-7-7--5-5-5-5--5--------------|
A-|-7-7-7-7--3-3-3-3--5--------------|
E-|-5-5-5-5-----------3--------------|
                    Hold...........
2nd Verse:

e-|-------|
B-|-------|
G-|-5-5-5-|
D-|-5-5-5-|
A-|-3-3-3-|
E-|-------| x1

e-|-----------------------------------------------------------------|
B-|-----------------------------------------------------------------|
G-|-----------------5-5-5-5-5-5-4-4---------5-5-5-5-----------------|
D-|-5-5-5-5-5-5-5-5-5-5-5-5-5-5-4-4-7-7-7-7-5-5-5-5-5-5-5-5-5-5-5-5-|
A-|-5-5-5-5-5-5-5-5-3-3-3-3-3-3-2-2-7-7-7-7-3-3-3-3-5-5-5-5-5-5-5-5-|
E-|-3-3-3-3-3-3-3-3-----------------5-5-5-5---------3-3-3-3-3-3-3-3-| x2

Hit the strings at a different pase the second time.Then play interlude and:
2nd Chorus:1st Guitar

e-|--------------------------------------------|
B-|--------------------------------------------|
G-|----------7-7-7-7--9-9-9-9------------------|
D-|-5-5-5-5--7-7-7-7--9-9-9-9--5--5-5-5-5-7--5-|
A-|-5-5-5-5--5-5-5-5--7-7-7-7------------------|
E-|-3-3-3-3------------------------------------|

e-|------------------------------------|
B-|------------------------------------|
G-|----------7-7-7-7--9-9-9-9--5-5-5-5-|
D-|-5-5-5-5--7-7-7-7--9-9-9-9--5-5-5-5-|
A-|-5-5-5-5--5-5-5-5--7-7-7-7--3-3-3-3-|
E-|-3-3-3-3----------------------------|  

e-|------------------|
B-|------------------|
G-|----------5-5-5-5-|
D-|-7-7-7-7--5-5-5-5-|
A-|-7-7-7-7--3-3-3-3-|
E-|-5-5-5-5----------|

e-|-----------------------------------------------------------------------|
B-|-----------------------------------------------------------------------|
G-|-7-7-7-7--5-5-5-5--7-7-7-7--5-5-5-5--7-7-7-7--5-5-5-5--7--7--7--7--5---|
D-|-7-7-7-7--5-5-5-5--7-7-7-7--5-5-5-5--7-7-7-7--5-5-5-5--7--7--7--7--5---|
A-|-5-5-5-5--3-3-3-3--5-5-5-5--3-3-3-3--5-5-5-5--3-3-3-3--5--5--5--5--3---|
E-|-----------------------------------------------------------------------|

                                                                      Hold...
2nd Guitar:

e-|------------------------------------|
B-|------------------------------------|
G-|----------7-7-7-7-----------5-5-5-5-|
D-|-5-5-5-5--7-7-7-7--2-2-2-2--5-5-5-5-|
A-|-5-5-5-5--5-5-5-5--2-2-2-2--3-3-3-3-|
E-|-3-3-3-3-----------0-0-0-0----------|1x

e-|--------------------------------------------------|
B-|--------------------------------------------------|
G-|--------------------------------------------------|
D-|-5--5-5-5--7--4--4-4-4-4-5-----------4-5--5-5-5-5-|
A-|---------------------------7--7-7-7---------------|
E-|--------------------------------------------------| x1

e-|------------------|
B-|------------------|
G-|----------5-5-5-5-|
D-|-7-7-7-7--5-5-5-5-|
A-|-7-7-7-7--3-3-3-3-|
E-|-5-5-5-5----------|

e-|-----------------------------------------------------------------------|
B-|-----------------------------------------------------------------------|
G-|-7-7-7-7--5-5-5-5--7-7-7-7--5-5-5-5--7-7-7-7--5-5-5-5--7--7--7--7--5---|
D-|-7-7-7-7--5-5-5-5--7-7-7-7--5-5-5-5--7-7-7-7--5-5-5-5--7--7--7--7--5---|
A-|-5-5-5-5--3-3-3-3--5-5-5-5--3-3-3-3--5-5-5-5--3-3-3-3--5--5--5--5--3---|
E-|-----------------------------------------------------------------------|
                                                                      Hold...
Bridge: (This part is played with 3 guitars)
1st Guitar: (Play with palm mute all the time)

e-|------------------------------------|
B-|------------------------------------|
G-|----------7-7-7-7--9-9-9-9--5-5-5-5-|
D-|-5-5-5-5--7-7-7-7--9-9-9-9--5-5-5-5-|
A-|-5-5-5-5--5-5-5-5--7-7-7-7--3-3-3-3-|
E-|-3-3-3-3----------------------------| x4 

2nd Guitar is played with open harmonics:harmonics created by plucking an open string at harmonic points, most commonly the 5th, 7th and 12th frets. Jsut touch the strings with your left hand and hit the string with your right hand.

e-|--------------------------------------------------------|
B-|--------------------------------------------------------|
G-|-----------------------------12-12--12-12--12-12--12-12-|
D-|-12-12--12-12--12-12--12-12-----------------------------|
A-|--------------------------------------------------------|
E-|--------------------------------------------------------|

e-|------------------------------------------------|
B-|------------------------------------------------|
G-|------------------------------------------------|
D-|---------------------12-12--12-12--12-12--12-12-|
A-|------------------------------------------------|
E-|-7-7--7-7--7--7--7-7----------------------------|

Paly 2nd guitar 4 times
3rd Guitar: (Comes in after 2x of 1st Guitar)

e-|--------------------------------------|
B-|--------------------------------------|
G-|--------------------------------------|
D-|-7-5--7-5--7-5--4-5--7-5--7-5--7-5--5-|
A-|--------------------------------------|
E-|--------------------------------------| x1

The song ends with a different version of the chorus:
1st Guitar

e-|--------------------------------------------|
B-|--------------------------------------------|
G-|----------7-7-7-7--9-9-9-9------------------|
D-|-5-5-5-5--7-7-7-7--9-9-9-9--5--5-5-5-5-7--5-|
A-|-5-5-5-5--5-5-5-5--7-7-7-7------------------|
E-|-3-3-3-3------------------------------------|x1

e-|------------------------------------|
B-|------------------------------------|
G-|----------7-7-7-7--9-9-9-9--5-5-5-5-|
D-|-5-5-5-5--7-7-7-7--9-9-9-9--5-5-5-5-|
A-|-5-5-5-5--5-5-5-5--7-7-7-7--3-3-3-3-|
E-|-3-3-3-3----------------------------|x3

e-|--------------------------------------------------|
B-|--------------------------------------------------|
G-|----------5-5-5-5--------------7-7-7-7------------|
D-|-7-7-7-7--5-5-5-5--7--7--7--7--7-7-7-7--5---------|
A-|-7-7-7-7--3-3-3-3--7--7--7--7--5-5-5-5--5---------|
E-|-5-5-5-5-----------5--5--5--5-----------3---------|
                                         Hold......
2nd Guitar:
e-|------------------------------------|
B-|------------------------------------|
G-|----------7-7-7-7-----------5-5-5-5-|
D-|-5-5-5-5--7-7-7-7--2-2-2-2--5-5-5-5-|
A-|-5-5-5-5--5-5-5-5--2-2-2-2--3-3-3-3-|
E-|-3-3-3-3-----------0-0-0-0----------|1x

e-|--------------------------------------------------|
B-|--------------------------------------------------|
G-|--------------------------------------------------|
D-|-5--5-5-5--7--4--4-4-4-4-5-----------4-5--5-5-5-5-|
A-|---------------------------7--7-7-7---------------|
E-|--------------------------------------------------| x3

e-|--------------------------------------------------|
B-|--------------------------------------------------|
G-|----------5-5-5-5--------------7-7-7-7------------|
D-|-7-7-7-7--5-5-5-5--7--7--7--7--7-7-7-7--5---------|
A-|-7-7-7-7--3-3-3-3--7--7--7--7--5-5-5-5--5---------|
E-|-5-5-5-5-----------5--5--5--5-----------3---------|
 
                                         Hold...... 
00:00 / 00:00
Outros vídeos desta música
Repetir
Outros vídeos desta música
Compositor não encontrado.
6.421 exibições
    • ½ Tom
    • A
    • Bb
    • B
    • C
    • Db
    • D
    • Eb
    • E
    • F
    • F#
    • G
    • Ab
  • Adicionar à lista

    0 comentários

    Ver todos os comentários

    Conseguiu tocar?

    0 Tocaram 0 Ainda não

    Grave um vídeo tocando Devil Me e nos envie!

    00:00 / 00:00

    Cifra Club Pro

    Aproveite o Cifra Club com benefícios exclusivos e sem anúncios
    Cifra Club Pro
    Aproveite o Cifra Club com benefícios exclusivos e sem anúncios
    OK