Cifra Club

Dr. Jackal & Mr. Hide

Millencolin

Cifra: Principal (violão e guitarra)
tom: D
Intro:
 
    B   D   A   G  
                             
e-|--------------------------------------------|
B-|--------------------------------------------|
G-|-4---7-------------7/4---7-------------7/4--|
D-|-4---7---7---5---7-7/4---7---7---5---7-7/4--|
A-|-2-2-5-5-7---5---7-5/2-2-5-5-7---5---7-5/2--|
E-|---------5-5-3-3-5-----------5-5-3-3-5------|


1st verse                       gliss

e-|-----------------------------------|
B-|--------------2--------------------|
G-|-4--------------4------------------|
D-|-4------------------------4--------| 2nd guitar plays
A-|-2--------------------------2------| B chords repeatidly
E-|-----------------------------------| Go intro and 2nd verse


Chorus:

1st guitar

e-|---------------------------------------------------------------------|
B-|-------------------------------------------------------3/5-3---------|
G-|---------------------4-4-4-4-4-7-7-7-7-7-------------2-------4/6-4---|
D-|-5-5-5-5-5-7-7-7-7-7-4-4-4-4-4-7-7-7-7-7---------4-4---------------4-|
A-|-5-5-5-5-5-7-7-7-7-7-2-2-2-2-2-5-5-5-5-5-5-4-5-4---------------------|
E-|-3-3-3-3-3-5-5-5-5-5-------------------------------------------------|

                        let ring                      gliss

e-|----------------------|-----------------7----------------|
B-|-------3/5-3----------|-------------------7---12---------|
G-|-----2-------4/6-4----|--4------------------7------------|
D-|-4-4---------------4--|--4---------------natural---------|
A-|----------------------|--2---------------harmonic--------|
E-|----------------------|----------------------------------|


2nd guitar

e-|---------------------------------------------------------------------|
B-|---------------------------------------------------------------------|
G-|---------------------4-4-4-4-4-7-7-7-7-7----------------------intro--|
D-|-5-5-5-5-5-7-7-7-7-7-4-4-4-4-4-7-7-7-7-7-5-5-5-5-5-7-7-7-7-7---riff--|
A-|-5-5-5-5-5-7-7-7-7-7-2-2-2-2-2-5-5-5-5-5-5-5-5-5-5-7-7-7-7-7---------|
E-|-3-3-3-3-3-5-5-5-5-5---------------------3-3-3-3-3-5-5-5-5-5---------|



3rd verse - intro riff all over it
Chorus then....

just one guitar

e-|----------------------------------------------------------------|
B-|----------------------------------------------------------------|
G-|----------------------------------------------------------------|
D-|----------------------------------------------------------------|
A-|-7-7-7-7-7-7-7-7-5-5-5-5-5-5-5-5-9-9-9-9-9-9-9-10-9-7-7-7-7-7-7-| x4
E-|----------------------------------------------------------------|

last chorus:

e-|------------------------------------------------------------------|
B-|------------------------------------------------------------------|
G-|---------------------4-4-4-4-4-7-7-7-7-7--------------------------|
D-|-5-5-5-5-5-7-7-7-7-7-4-4-4-4-4-7-7-7-7-7--------------------------|
A-|-5-5-5-5-5-7-7-7-7-7-2-2-2-2-2-5-5-5-5-5-5-5-5-4-4-4-5-5-5-4-4-4--|
E-|-3-3-3-3-3-5-5-5-5-5----------------------------------------------|

play last notes (5,4) till the end of the song 
Composição de Erik / Larzon / Mathias / Nikola / Nikola Sarcevic
2.326 exibições
    • ½ Tom
    • A
    • Bb
    • B
    • C
    • Db
    • D
    • Eb
    • E
    • F
    • F#
    • G
    • Ab
  • Adicionar à lista

    0 comentários

    Ver todos os comentários

    Conseguiu tocar?

    0 Tocaram 0 Ainda não

    Grave um vídeo tocando Dr. Jackal & Mr. Hide e nos envie!

    00:00 / 00:00
    Outros vídeos desta música
    Repetir Qualidade Automático
    Outros vídeos desta música
    00:00 / 00:00
    Automático

    Cifra Club Pro

    Aproveite o Cifra Club com benefícios exclusivos e sem anúncios
    Cifra Club Pro
    Aproveite o Cifra Club com benefícios exclusivos e sem anúncios
    OK