Cifra Club

Aprenda

Farewell My Hell

Millencolin

Cifra: Principal (violão e guitarra)
Tom: C
Guitarra 1(Base)

Riff 1
E|----------------------------|
B|----------------------------|
G|-4-4-4-4-4-4-4-4-4-4-4------|
D|-4-4-4-4-4-4-4-4-4-4-4------|
A|-2-2-2-2-2-2-2-2-2-2-2------|
E|----------------------------|

Guitarra 2(Solo)

Riff 1
E|--------------------------------------|
B|--------------------------------------|
G|--------------------------------------|
D|-5-4-3-12-10--9-----------------------|
A|-5-4-3-12-10--9-----------------------|
E|-3-2-5-10--8--7-----------------------|

Guitarra 2
E|---------------------------------|
B|---------------------------------|
G|-12-11-14-19-17-16---------------|
D|---------------------------------|
A|-10--9-12-17-15-14---------------|
E|---------------------------------|

Guitarra 1 e 2

Riff 2
E|------------------------------------------------------------------------------------------------|
B|------------------------------------------------------------------------------------------------|
G|-4-x-x-x-x-x-x-x-x-x-x-x-x-x--2--4--x-x-x-x-x-x-x-x-x-x-x-x-x--4-----------------4-4-4-4-4-4-4-4|
D|-4-x-x-x-x-x-x-x-x-x-x-x-x-x--2--4--x-x-x-x-x-x-x-x-x-x-x-x-x--4-5-5-5-5-7-7-7-7-4-4-4-4-4-4-4-4|
A|-2-x-x-x-x-x-x-x-x-x-x-x-x-x--0--2--x-x-x-x-x-x-x-x-x-x-x-x-x--2-5-5-5-5-7-7-7-7-2-2-2-2-2-2-2-2|
E|-----------------------------------------------------------------3-3-3-3-5-5-5-5----------------|

Riff 3
E|----------------------------------------------------------------------------------------------------|
B|----------------------------------------------------------------------------------------------------|
G|-4-x-x-x-x-x-x-x-x-x-x-x-x-x--2--4--x-x-x-x-x-x-x-x-x-x-x-x-x--4-------------------4-4-4-4-4-4-4-4--|
D|-4-x-x-x-x-x-x-x-x-x-x-x-x-x--2--4--x-x-x-x-x-x-x-x-x-x-x-x-x--4--5-5-5-5-7-7-7-7--4-4-4-4-4-4-4-4--|
A|-2-x-x-x-x-x-x-x-x-x-x-x-x-x--0--2--x-x-x-x-x-x-x-x-x-x-x-x-x--2--5-5-5-5-7-7-7-7--2-2-2-2-2-2-2-2--|
E|------------------------------------------------------------------3-3-3-3-5-5-5-5-------------------|

Riff 4
E|------------------------------------------------------------------|
B|------------------------------------------------------------------|
G|-------------------------------------------------4-4-4-4-4-4-4-4--|
D|-5-5-5-5-5-5-5-5-7-7-7-7-7-7-7-7-4-4-4-4-4-4-4-4-4-4-4-4-4-4-4-4--|
A|-5-5-5-5-5-5-5-5-7-7-7-7-7-7-7-7-4-4-4-4-4-4-4-4-2-2-2-2-2-2-2-2--|
E|-3-3-3-3-3-3-3-3-5-5-5-5-5-5-5-5-2-2-2-2-2-2-2-2------------------|

Riff 5
E|--------------------------------------------------------------------------------------------------------------------------------|
B|--------------------------------------------------------------------------------------------------------------------------------|
G|-------------------------------------------------4-4-4-4-4-4-4-4----------------------------------------------------------------|
D|-5-5-5-5-5-5-5-5-7-7-7-7-7-7-7-7-4-4-4-4-4-4-4-4-4-4-4-4-4-4-4-4-5-5-5-5-5-5-5-5-5-5-5-5-5-5-5-5-7-7-7-7-7-7-7-4-4-4-4-7-7-7-7--|
A|-5-5-5-5-5-5-5-5-7-7-7-7-7-7-7-7-4-4-4-4-4-4-4-4-2-2-2-2-2-2-2-2-5-5-5-5-5-5-5-5-5-5-5-5-5-5-5-5-7-7-7-7-7-7-7-4-4-4-4-7-7-7-7--|
E|-3-3-3-3-3-3-3-3-5-5-5-5-5-5-5-5-2-2-2-2-2-2-2-2-----------------3-3-3-3-3-3-3-3-3-3-3-3-3-3-3-3-5-5-5-5-5-5-5-2-2-2-2-5-5-5-5--|

Riff 6

E|---------------------------------------------------------------------------------------------------
B|---------------------------------------------------------------------------------------------------
G|-4-4-4-4-4-4-4-4-4-4-4-4-4-4--2--4-4-4-4-4-4-4-4-4-4-4-4-4-4--4------------------4-4-4-4-4-4-4-4---
D|-4-4-4-4-4-4-4-4-4-4-4-4-4-4--2--4-4-4-4-4-4-4-4-4-4-4-4-4-4--4--5-5-5-5-7-7-7-7-4-4-4-4-4-4-4-4---
A|-2-2-2-2-2-2-2-2-2-2-2-2-2-2--0--2-2-2-2-2-2-2-2-2-2-2-2-2-2--2--5-5-5-5-7-7-7-7-2-2-2-2-2-2-2-2---
E|-----------------------------------------------------------------3-3-3-3-5-5-5-5-------------------


Riff 7

E|------------------------------------------------------------------|
B|------------------------------------------------------------------|
G|------------------------------------------------------------------|
D|-5-5-5-5-5-5-5-5-5-5-5-5-5-5-5-5-7-7-7-7-7-7-7-7-4-4-4-4-7-7-7-7--|
A|-5-5-5-5-5-5-5-5-5-5-5-5-5-5-5-5-7-7-7-7-7-7-7-7-4-4-4-4-7-7-7-7--|
E|-3-3-3-3-3-3-3-3-3-3-3-3-3-3-3-3-5-5-5-5-5-5-5-5-2-2-2-2-5-5-5-5--|

Riff 8

E|----------------------------------------------------------------------------------------------------------------------------------
B|----------------------------------------------------------------------------------------------------------------------------------
G|-4-4-4-4-4-4-4-4-4-4-4-4-4-4-4-4---------------------------------4-4-4-4-4-4-4-4-4-4-4-4-4-4-4-4----------------------------------
D|-4-4-4-4-4-4-4-4-4-4-4-4-4-4-4-4-7-7-7-7-7-7-7-7-7-7-7-7-7-7-7-7-4-4-4-4-4-4-4-4-4-4-4-4-4-4-4-4-5-5-5-5-5-5-5-5-5-5-5-5-5-5-5-5--
A|-2-2-2-2-2-2-2-2-2-2-2-2-2-2-2-2-7-7-7-7-7-7-7-7-7-7-7-7-7-7-7-7-2-2-2-2-2-2-2-2-2-2-2-2-2-2-2-2-5-5-5-5-5-5-5-5-5-5-5-5-5-5-5-5--
E|---------------------------------5-5-5-5-5-5-5-5-5-5-5-5-5-5-5-5---------------------------------3-3-3-3-3-3-3-3-3-3-3-3-3-3-3-3--

Riff 9

E|-------------------------------------------------------------------------|
B|-------------------------------------------------------------------------|
G|-4-4-4-4-4-4-4-4-------------------4-4-4-4-4-4-4-4--------------------4--|
D|-4-4-4-4-4-4-4-4-5-5-5-5-7-7-7-7---4-4-4-4-4-4-4-4-5-5-5-5-7-7-7-7----4--|
A|-2-2-2-2-2-2-2-2-5-5-5-5-7-7-7-7---2-2-2-2-2-2-2-2-5-5-5-5-7-7-7-7----2--|
E|-----------------3-3-3-3-5-5-5-5-------------------3-3-3-3-5-5-5-5-------|



Introdução 

Guitarra 1(Base) = Riff 1

Guitarra 2(Solo) = Riff 1  Riff 2  Riff 1  Riff 2

Letra 

Guitarra 1 e 2

Riff 2 : Everything will soon turn black, 
         so here's my letter.
         To get it off my chest.


Riff 3 :  Promise fater, don't look back,
          it's not for the better.
          I know you tried your best.


Riff 4 : Everybody seems so happy like they all share 
         something I haven't felt for years.


Riff 5 : For long I've tried to just hold on but now I don't care
         I'm closing down my thoughts and fears.
         Forgive me, life is cruel. 
         I'm leaving you. 


Guitarra 1 = Riff 1
Guitarra 2 = Riff 1 depois Riff 2(1 Vez)


Guitarra 1 e 2

Riff 2 : Hear you little brother me,
         you know I'm sorry,
         for every high hand.

Riff 6 : Give my love to mother,please
         tell her not to worry.
         I hope she'll understand.

Riff 4 : Everybody seems so happy like they all share 
         something I haven't felt for years.

Riff 5 : For long I've tried to just hold on but now I don't care
         I'm closing down my thoughts and fears.
         Forgive me, life is cruel. 
         I'm leaving you. 


Guitarra 1 e 2

Riff 1

Riff 7 : Forgive me, life is cruel. 
         I'm leaving you. 

Riff 8 : So long, don't wait for me in vain.
         What's wrong with being free from pain?
         Be strong and live your lives like I never could.


Guitarra 1 e 2

Riff 8 : Farewell, let the memories be nice.
         To hell!? Don't think you go there twice.
         I'm well off right here, it's more than good.
         So Farewell... 

Guitarra 1

Riff 1

Guitarra 2

Riff 1(1Vez)


Guitarra 1 e 2

Riff 4 : Everybody seems so happy like they all share 
         something I haven't felt for years.

Riff 5 : For long I've tried to just hold on but now I don't care
         I'm closing down my thoughts and fears.
         Forgive me, life is cruel. 
         I'm leaving you. 

Guitarra 1

Riff 9

Guitarra 2

Riff 1(1 vez)

Guitarra 1 e 2

Riff 9


Obs.: Ouçam bastante a música para pegar ela direito.
Composição de Nikola Sarcevic
Colaboração e revisão:
  • Lucas Lima
6.001 exibições
    • ½ Tom
    • A
    • Bb
    • B
    • C
    • Db
    • D
    • Eb
    • E
    • F
    • F#
    • G
    • Ab
  • Adicionar à lista

    0 comentários

    Mostrar mais comentários

    Conseguiu tocar?

    0 Tocaram 0 Ainda não

    Grave um vídeo tocando Farewell My Hell e mande pra gente!

    00:00 / 00:00
    outros vídeos desta música
    repetir qualidade Automático
    Outros vídeos desta música
    00:00 / 00:00
    Automático

    Cifra Club Pro

    Aproveite o Cifra Club com benefícios exclusivos e sem anúncios
    7 dias grátis
    Cifra Club Pro
    Aproveite o Cifra Club com benefícios exclusivos e sem anúncios
    7 dias grátis
    OK