Cifra Club

Aprenda

Fox

Millencolin

Cifra: Principal (violão e guitarra)
Tom: A
Intro:
1st guitar

E|-|---------------------------------------|
B|-|---------------------------------------|
G|-|-7-7-------7-7-------4-4---------------|
D|-|-7-7--5-5--7-7--5-5--4-4--7-7--5-5-5-5-|
A|-|-5-5--5-5--5-5--5-5--2-2--7-7--5-5-5-5-| 
E|-|------3-3-------3-3-------5-5--3-3-3-3-| x2

2nd guitar:

E|-|----------------------------------------------|
B|-|----------------------------------------------|
G|-|-7-7-------7-7--------------------------------|
D|-|-7-7--5-5--7-7--5-----------------------------|
A|-|-5-5--5-5--5-5--5--7--5-4h5-4h5-4h5-4h5-------|
E|-|------3-3-------3-----------------------5-7-5-| x2

1st Verse:
1st guitar 
E|-|--------------------------------------|
B|-|--------------------------------------|
G|-|-7---------------------------7--------|
D|-|-7---------------------------7--------|
A|-|-5------------------------4--5--------|
E|-|--------------------------------------| x1
                           2nd guitar comes in after here
Play this part with palm mute                   ha.....

E|-|----------------------------------------------------|
B|-|----------------------------------------------------|
G|-|-7-7-------7-7--------------------------------------|
D|-|-7-7--5-5--7-7--5-5---------------------------------|
A|-|-5-5--5-5--5-5--5-5--5-4h5-4h5-4h5-4h5--5-5-5-5-5-5-| 
E|-|------3-3-------3-3---------------------------------| x1

1st Chorus:
1st guitar

E|-|---------------------------------------|
B|-|---------------------------------------|
G|-|-7-7-------7-7-------4-4---------------|
D|-|-7-7--5-5--7-7--5-5--4-4--7-7--5-5-5-5-|
A|-|-5-5--5-5--5-5--5-5--2-2--7-7--5-5-5-5-| 
E|-|------3-3-------3-3-------5-5--3-3-3-3-| x2

2nd guitar:

E|-|---------------------------------------------|
B|-|---------------------------------------------|
G|-|-7-7-------7-7-------------------------------|
D|-|-7-7--5-5--7-7--5----------------------------|
A|-|-5-5--5-5--5-5--5-7--5-4h5-4h5-4h5-4h5-------|
E|-|------3-3-------3----------------------5-7-5-| x2

2nd Verse:
1st guitar 

E|-|--------------------------------------|
B|-|--------------------------------------|
G|-|-7---------------------------7--------|
D|-|-7---------------------------7--------|
A|-|-5------------------------4--5--------|
E|-|--------------------------------------| x1
    Hold....................     2nd guitar comes in after here
Play this part with palm mute              ha.........

E|-|----------------------------------------------------|
B|-|----------------------------------------------------|
G|-|-7-7-------7-7--------------------------------------|
D|-|-7-7--5-5--7-7--5-5---------------------------------|
A|-|-5-5--5-5--5-5--5-5--5-4h5-4h5-4h5-4h5--5-5-5-5-5-5-| 
E|-|------3-3-------3-3---------------------------------| x1

2nd Chorus:
1st guitar

E|-|---------------------------------------|
B|-|---------------------------------------|
G|-|-7-7-------7-7-------4-4---------------|
D|-|-7-7--5-5--7-7--5-5--4-4--7-7--5-5-5-5-|
A|-|-5-5--5-5--5-5--5-5--2-2--7-7--5-5-5-5-| 
E|-|------3-3-------3-3-------5-5--3-3-3-3-| x2

2nd guitar:
E|-|---------------------------------------------|
B|-|---------------------------------------------|
G|-|-7-7-------7-7-------------------------------|
D|-|-7-7--5-5--7-7--5----------------------------|
A|-|-5-5--5-5--5-5--5-7--5-4h5-4h5-4h5-4h5-------|
E|-|------3-3-------3----------------------5-7-5-| x2

Intro to Interlude:

E|-|-----------------|
B|-|-----------------|
G|-|-7-7-7-7-7-7-7-7-|
D|-|-7-7-7-7-5-5-5-5-|
A|-|-5-5-5-5-5-5-5-5-| 
E|-|-----------------| x1

Interlude:
1:st guitar

E|-|---------------------------------|
B|-|---------------------------------|
G|-|-----------------7-7-7-7---------|
D|-|-9-9-9-9-7-7-7-7-7-7-7-7-5-5-5-5-|
A|-|-9-9-9-9-7-7-7-7-5-5-5-5-5-5-5-5-| 
E|-|-7-7-7-7-5-5-5-5---------3-3-3-3-| x3

E|-|-------------------------|
B|-|-------------------------|
G|-|-------------------------|
D|-|-9-9-9-9-7-7-7-7-5-5-5-5-|
A|-|-9-9-9-9-7-7-7-7-5-5-5-5-| 
E|-|-7-7-7-7-5-5-5-5-3-3-3-3-| x1

2nd guitar:

E|-|----------------------------------------|
B|-|----------------------------------------|
G|-|---------------------7--7-7-7-----------|
D|-|-9--9-9-9------------7--7-7-7-----------|
A|-|-9--9-9-9--4--4-4-4--5--5-5-5--7--7-7-7-| 
E|-|-7--7-7-7-------------------------------| x3

E|-|---------------------------------------|
B|-|---------------------------------------|
G|-|---------------------7---------------7-|
D|-|-9--9-9-9--7--7-7-7--5---------------5-|
A|-|-9--9-9-9--7--7-7-7--------------------|
E|-|-7--7-7-7--5--5-5-5--------------------| x1
                        Hold............Solo:
1stguitar 
(some effect is used on the guitar)

E|-|-----------------------------------------------------------------|
B|-|-----------------------------------------------------------------|
G|-|-9b11-9b11-9b11-9b11-9b11-9b11-9b11-9b11--11--11-11--9--9-9--7~/-|
D|-|-----------------------------------------------------------------|
A|-|-----------------------------------------------------------------|
E|-|-----------------------------------------------------------------|

E|-|-----------------------------------------------------------------|
B|-|-----------------------------------------------------------------|
G|-|-9b11-9b11-9b11-9b11-9b11-9b11-9b11-9b11--11--11-11--9--9-9------|
D|-|-----------------------------------------------------------------|
A|-|-------------------------------------------------------------5~--| E-|-----------------------------------------------------------------|

2nd guitar:

E|-|---------------------------------------|
B|-|---------------------------------------|
G|-|-7-7-------7-7-------4-4---------------|
D|-|-7-7--5-5--7-7--5-5--4-4--7-7--5-5-5-5-|
A|-|-5-5--5-5--5-5--5-5--2-2--7-7--5-5-5-5-| 
E|-|------3-3-------3-3-------5-5--3-3-3-3-| x2

End chorus:
1st guitar

E|-|---------------------------------------|
B|-|---------------------------------------|
G|-|-7-7-------7-7-------4-4---------------|
D|-|-7-7--5-5--7-7--5-5--4-4--7-7--5-5-5-5-|
A|-|-5-5--5-5--5-5--5-5--2-2--7-7--5-5-5-5-| 
E|-|------3-3-------3-3-------5-5--3-3-3-3-| x2

E|-|-----------------------------------------|
B|-|-----------------------------------------|
G|-|-4-4----------------4-4----------------7-|
D|-|-4-4--7-7--5-5-5-5--4-4--7-7--5-5-5-5--7-|
A|-|-2-2--7-7--5-5-5-5--2-2--7-7--5-5-5-5--5-| 
E|-|------5-5--3-3-3-3-------5-5--3-3-3-3----| x1

2nd guitar:

E|-|---------------------------------------------|
B|-|---------------------------------------------|
G|-|-7-7-------7-7-------------------------------|
D|-|-7-7--5-5--7-7--5----------------------------|
A|-|-5-5--5-5--5-5--5-7--5-4h5-4h5-4h5-4h5-------|
E|-|------3-3-------3----------------------5-7-5-|x2

E|-|------------------------------------------------|
B|-|------------------------------------------------|
G|-|----------------------------------------------5-|
D|-|----------------------------------------------5-|
A|-|-5-4h5-4h5-4h5-4h5---------5-4h5-4h5-4h5-4h5--3-|
E|-|--------------------5-7-5-----------------------| x1
Composição de Nikola Sarcevic
Colaboração e revisão:
  • Gilson Alves
28.514 exibições
    • ½ Tom
    • A
    • Bb
    • B
    • C
    • Db
    • D
    • Eb
    • E
    • F
    • F#
    • G
    • Ab
  • Adicionar à lista

    0 comentários

    Mostrar mais comentários

    Conseguiu tocar?

    0 Tocaram 0 Ainda não

    Grave um vídeo tocando Fox e mande pra gente!

    00:00 / 00:00
    outros vídeos desta música
    repetir qualidade Automático
    Outros vídeos desta música
    00:00 / 00:00
    Automático

    Cifra Club Pro

    Aproveite o Cifra Club com benefícios exclusivos e sem anúncios
    7 dias grátis
    Cifra Club Pro
    Aproveite o Cifra Club com benefícios exclusivos e sem anúncios
    7 dias grátis
    OK