Cifra Club

Gragster

Millencolin

Cifra: Principal (violão e guitarra)
tom: D
INTRO/VERSE(lead):
e|---------------------------------------------------------------------------|
B|---------------------------------------------------------------------------|
G|---------------------------------------------------------------------------|
D|---7xxx-4p0--(4)xx-(2)xx-4p0-----------------------------------------------|
A|---5xxx------(2)xx-(0)xx---------------------------------------------------|
E|---------------------------------------------------------------------------|

VERSE(rythm):
e|---------------------------------------------------------------------------|
B|---------------------------------------------------------------------------|
G|---------------------------------------------------------------------------|
D|---7xxxx--4xx-2xx----------------------------------------------------------|
A|---5xxxx--2xx-0xx----------------------------------------------------------|
E|---------------------------------------------------------------------------|

CHORUS:
e|---------------------------------------------------------------------------|
B|---------------------------------------------------------------------------|
G|---------------------------------------------------------------------------|
D|---------------------7-7-7-7--4-4-4-4--------------------7-5-4-0-----------|
A|---5-5-5-5--7-7-7-7--5-5-5-5--2-2-2-2--5-5-5-5--7-7-7-7--5-----------------|
E|---3-3-3-3--5-5-5-5--------------------3-3-3-3--5-5-5-5--------------------|

SOLO(lead):
e|----------15-14---------------15-14----------------------------------------|
B|----------------15-10--(x4)---------15--(until fade out)-------------------|
G|---------------------------------------------------------------------------|
D|---------------------------------------------------------------------------|
A|---------------------------------------------------------------------------|
E|---------------------------------------------------------------------------|

SOLO(rythm):
e|---------------------------------------------------------------------------|
B|---------------------------------------------------------------------------|
G|---------------------------------------------------------------------------|
D|---------------------7-7-7-7--4-4-4-4--------------------------------------|
A|---5-5-5-5--7-7-7-7--5-5-5-5--2-2-2-2--------------------------------------|
E|---3-3-3-3--5-5-5-5--------------------------------------------------------|
00:00 / 00:00
Outros vídeos desta música
Repetir
Outros vídeos desta música
Compositor não encontrado.
1.805 exibições
    • ½ Tom
    • A
    • Bb
    • B
    • C
    • Db
    • D
    • Eb
    • E
    • F
    • F#
    • G
    • Ab
  • Adicionar à lista

    0 comentários

    Ver todos os comentários

    Conseguiu tocar?

    0 Tocaram 0 Ainda não

    Grave um vídeo tocando Gragster e nos envie!

    Entre para oCifra Club PRO

    Tenha acesso a benefícios exclusivos no App e no Site

    • Chega de anúncios

    • Prioridade de compra em lançamentos

    • Mais recursos no app do Afinador

    • Atendimento Prioritário

    • Descontos nos produtos Cifra Club

    • Ajude a produzir mais conteúdo

    00:00 / 00:00

    Cifra Club Pro

    Aproveite o Cifra Club com benefícios exclusivos e sem anúncios
    Cifra Club Pro
    Aproveite o Cifra Club com benefícios exclusivos e sem anúncios
    OK