Cifra Club

Kemp

Millencolin

Cifra: Principal (violão e guitarra)
tom: G
Intro 2x
e||-------------------------------------||
B||-------------------------------------||
G||-------------------------------------||
D||-------------------------------------||
A||-----------------2-2-2-2-0-0-0-0-----||
E||-2-2-2-2-0-0-0-0---------------------||

2da parte
e||-------------------------------------||
B||-------------------------------------||
G||-------------------------------------||
D||-----------------4-4-4-4-2-2-2-2-----||
A||-4-4-4-4-2-2-2-2-2-2-2-2-0-0-0-0-----||
E||-2-2-2-2-0-0-0-0---------------------||

Verso palm mutado 2x e dai solto
e||-------------------------------------||
B||-------------------------------------||
G||-------------------------------------||
D||-----------------4-4-4-4-2-2-2-2-----||
A||-4-4-4-4-2-2-2-2-2-2-2-2-0-0-0-0-----||
E||-2-2-2-2-0-0-0-0---------------------||

Refrao
e||-------------------------------------||
B||-------------------------------------||
G||-------------------------------------||
D||-77777777777777-999999999999999999---||
A||-55555555555555-777777777777777777---||
E||-------------------------------------||

Solinhu salame com bend e coisa e tallz 

e||-----------------------7---7--7--7--7||
B||---7---7---7---7---7-5---5---5--5--5-||
G||-5---5---5---5---5-------------------||
D||-------------------------------------||
A||-------------------------------------||
E||-------------------------------------||

ai heh soh enkaixa na musik :P
alguem faz issu q eu to com preguissa
oihuhoiuh

letra.:

We are reminded every day of the way it will be
Will civilized lifestyle put an end to this we´ll see
We got the dated book, we got the go
You got the hated looks but I say so
We got the dated book but I say no

Hit and attack the new deals running dry
Who will believe you when you cannot say why ?
All on a world-scale, is it really so ?
But can I say no ?

This is a process to grow you know it could be a dream
Yeah, the happy consumption, super crappy, over-slappy theymean
We got the cargo-ships, we got the go
You got the jargo-trips but I say so
We got the cargo-ships but I say no

Hit and attack the new deals running dry
Who will believe you when you cannot say why ?
All on a world-scale, is it really so ?
What can I say?
Composição de Mathias Färm / Nikola Sarcevic
Colaboração e revisão:
  • Felipe Tozo
5.847 exibições
    • ½ Tom
    • A
    • Bb
    • B
    • C
    • Db
    • D
    • Eb
    • E
    • F
    • F#
    • G
    • Ab
  • Adicionar à lista

    0 comentários

    Ver todos os comentários

    Conseguiu tocar?

    0 Tocaram 0 Ainda não

    Grave um vídeo tocando Kemp e nos envie!

    00:00 / 00:00
    Outros vídeos desta música
    Repetir Qualidade Automático
    Outros vídeos desta música
    00:00 / 00:00
    Automático

    Cifra Club Pro

    Aproveite o Cifra Club com benefícios exclusivos e sem anúncios
    Cifra Club Pro
    Aproveite o Cifra Club com benefícios exclusivos e sem anúncios
    OK