Cifra Club

Killercrush

Millencolin

Cifra: Principal (violão e guitarra)
tom: G
Intro riff:


e-|----------------------------3-2-0--|
B-|----------3---3/5/3-------3--------|
G-|--------2---4-----------2----------|
D-|----4-5-------------4-5------------|
A-|-----------------------------------|
E-|-----------------------------------|


first verse:  

   D             G A   E        D        C   A

                            
e-|---------------------------------------------|
B-|---------------------------------------------|
G-|-7--7-7-7-7-7--4/6--9---7--7-7-7-5-5--5------|
D-|-7--7-7-7-7-7--5/7--9---7--7-7-7-5-5--5---7--|
A-|-5--5-5-5-5-5--5/7--7---5--5-5-5-5-5--3---7--|
E-|---------------3/5------------------------5--|



good looks...

   G                A

e-|---------------------------------------|
B-|---------------------------------------|
G-|---------------------------------------|
D-|-5-5-5-5-5-5-5-5--7-7-7-7-7-7-7-7------|
A-|-5-5-5-5-5-5-5-5--7-7-7-7-7-7-7-7------|
E-|-3-3-3-3-3-3-3-3--5-5-5-5-5-5-5-5------|


Chorus:


   D       A       B       G
(It's you...)
e-|----------------------------------------|
B-|----------------------------------------|
G-|-7-7-7-7---------4-4-4-4----------------|
D-|-7-7-7-7-7-7-7-7-4-4-4-4-5-5-5-5--------|
A-|-5-5-5-5-7-7-7-7-2-2-2-2-5-5-5-5--------|
E-|---------5-5-5-5---------3-3-3-3--------| 


   D       A       G
(A pig in walking shoes...)                   
e-|-----------------------------------------|
B-|-----------------------------------------|
G-|-7-7-7-7---------------------------------|
D-|-7-7-7-7-7-7-7-7-------------------------|
A-|-5-5-5-5-7-7-7-7-*-*-*-*-*-*-*-*-*-*-----| 
E-|---------5-5-5-5-3-3-3-3-3-3-3-3-3-3-----|


   D       A       B       G
(You drool, everytime...)
e-|----------------------------------------|
B-|----------------------------------------|
G-|-7-7-7-7---------4-4-4-4----------------|
D-|-7-7-7-7-7-7-7-7-4-4-4-4-5-5-5-5--------|
A-|-5-5-5-5-7-7-7-7-2-2-2-2-5-5-5-5--------|
E-|---------5-5-5-5---------3-3-3-3--------| 

   D       A       G
(And I'm falling in love with you...)                   
e-|-----------------------------------------|
B-|-----------------------------------------|
G-|-7-7-7-7---------------------------------|
D-|-7-7-7-7-7-7-7-7-------------------------|
A-|-5-5-5-5-7-7-7-7-*-*-*-*-*-*-*-*-*-*-----| 
E-|---------5-5-5-5-3-3-3-3-3-3-3-3-3-3-----|

(just an ounce of human touch...)

   B           G        A
               
eI------------------------------------------|
BI----2---------3---------------------------|
GI-4--4---4-----4--------6------------------|
DI-4--4---4-----5--------7------------------|
AI-2------2-----5--------7------------------|
EI--------------3--------5------------------|


    B                     mute w/ right hand
                
e-|-----------------------------------------------------------------|
B-|-----------------------------------------------------------------|
G-|-----------------------------------------------------------------|
D-|---------5-5-4-4---------5-5-4-4---------5-5-4-4---------5-5-4-4-|
A-|-2-2-2-2---------2-2-2-2---------2-2-2-2---------2-2-2-2---------|
E-|-----------------------------------------------------------------|


    G                               A                 
                
e-|-----------------------------------------------------------------|
B-|-----------------------------------------------------------------|
G-|-----------------------------------------------------------------|
D-|---------5-5-4-4---------5-5-4-4---------5-5-4-4---------5-5-4-4-|
A-|---------------------------------0-0-0-0---------0-0-0-0---------|
E-|-3-3-3-3---------3-3-3-3-----------------------------------------|

                                                       back to chorus

The end:

e-|---------------------------3-2-----------|
B-|---------3---3-5-3-------3-----5---------|
G-|-------2---4-----------2-----------------|
D-|---4-5-------------4-5-------------------|
A-|-----------------------------------------|
E-|-----------------------------------------|


                                  pull-off
                                  
e-|---------------------------3----2-3-2----|
B-|---------3---3-5-3-------3------------5--|
G-|-------2---4-----------2-----------------|
D-|---4-5-------------4-5-------------------|
A-|-----------------------------------------|
E-|-----------------------------------------|
Composição de Erik / Larzon / Mathias / Nikola / Nikola Sarcevic
4.273 exibições
    • ½ Tom
    • A
    • Bb
    • B
    • C
    • Db
    • D
    • Eb
    • E
    • F
    • F#
    • G
    • Ab
  • Adicionar à lista

    0 comentários

    Ver todos os comentários

    Conseguiu tocar?

    1 Tocaram 0 Ainda não

    Grave um vídeo tocando Killercrush e nos envie!

    00:00 / 00:00
    Outros vídeos desta música
    Repetir Qualidade Automático
    Outros vídeos desta música
    00:00 / 00:00
    Automático

    Cifra Club Pro

    Aproveite o Cifra Club com benefícios exclusivos e sem anúncios
    Cifra Club Pro
    Aproveite o Cifra Club com benefícios exclusivos e sem anúncios
    OK