Cifra Club

Aprenda

Lozin Must

Millencolin

Cifra: Principal (violão e guitarra)
Tom: A#
VERSE:  A#, Eb, A#, Eb, G, C,   A# (x2)
        |---------------------------
        |----8-------8-------5------
        |8---8---8---8---5---5---8--
        |8---6---8---6---5---3---6--
        |6-------6-------3-------6--
 
Depois das duas vezes, tem um Eb, antes de entrar no refrão (chorus)


CHORUS: A#, D,  G, Eb (x2) 
        |----------------
        |----7-------8---
        |8---7---5---8---
        |8---5---5---6---
        |6-------3-------

VERSE:

CHORUS:

     
apos o chorus: A#, D, Eb, F (x2)

bridge: G, Eb, G, Eb, G, F, A#, Eb

SOLO:

~=Bend
~*=Bend up then down

E|------------------------------------------------------------
B|------------------------------------------------------------
G|----10~*-------10~*-----8-7-------8-7-----7-8--10p8p7-------
D|-8--------8-7--------8-------8-7-------8--------------10----
A|------------------------------------------------------------
E|------------------------------------------------------------

E|---------------------------------------------------------------------
B|-----18~*---------18~*------16-15---------16-15------15h16p15--18~*--
G|-15--------15-14--------15---------15-14---------15------------------
D|---------------------------------------------------------------------
A|---------------------------------------------------------------------
E|---------------------------------------------------------------------

CHORUS:

final: A#, D, Eb, F
Composição de Nikola Sarcevic
7.061 exibições
    • ½ Tom
    • A
    • Bb
    • B
    • C
    • Db
    • D
    • Eb
    • E
    • F
    • F#
    • G
    • Ab
  • Adicionar à lista

    0 comentários

    Mostrar mais comentários

    Conseguiu tocar?

    0 Tocaram 0 Ainda não

    Grave um vídeo tocando Lozin Must e mande pra gente!

    00:00 / 00:00
    outros vídeos desta música
    repetir qualidade Automático
    Outros vídeos desta música
    00:00 / 00:00
    Automático

    Cifra Club Pro

    Aproveite o Cifra Club com benefícios exclusivos e sem anúncios
    7 dias grátis
    Cifra Club Pro
    Aproveite o Cifra Club com benefícios exclusivos e sem anúncios
    7 dias grátis
    OK