Cifra Club

Man or Mouse

Millencolin

Cifra: Principal (violão e guitarra)
tom: G
Intro
Guitar 1
|----------------------------|
|----------------------------|
|-7-7-7-7-7-7-7-7-7-7-7-7\---|
|-7-7-7-7-7-7-7-7-7-7-7-7\---|
|-5-5-5-5-5-5-5-5-5-5-5-5\---|
|----------------------------|
Guitar 2
|----------------------------|
|----------------------------|
|-7-7-7-7-7-7-7-7-7-7-7-7\---|
|-x-x-x-x-x-x-x-x-x-x-x-x----|
|-5-5-5-5-5-5-5-5-5-5-5-5\---|
|----------------------------|

Post Intro
Guitar 1:
|--------------------------------------|-------------------------|
|--------------------------------------|-------------------------|
|-7-7-7-7--5-5-5-5---------------------|-7-7-7-7-7\--7--7-7-7-7\-|
|-7-7-7-7--5-5-5-5--5-5-5-5--3-3-3-3---|-7-7-7-7-7\--7--7-7-7-7\-|
|-5-5-5-5--3-3-3-3--5-5-5-5--3-3-3-3---|-5-5-5-5-5\--5--5-5-5-5\-|
|-------------------3-3-3-3--1-1-1-1---|-------------------------|
Guitar 2 
|-------------------------------------------------|----------------------------------|
|-------------------------------------------------|----------------------------------|
|-10-10-10-10-10-10-10-10-10-10-10-10-10-10-10-10-|-10-10-10-10-10\--10--10-10-10-10\|
|-x--x--x--x--x--x--x--x--x--x--x--x--x--x--x--x--|--x--x--x--x--x----x---x--x--x--x-|
|-8--8--8--8--8--8--8--8--8--8--8--8--8--8--8--8--|--8--8--8--8--8\---8---8--8--8--8\|
|-------------------------------------------------|----------------------------------|

Verse
Guitar 1
|-------------------------------------|---------------------|---------------------------|
|-------------------------------------|---------------------|---------------------------|
|-7----------------------------x-x-x--|---------------------|-10-10-10-10-10-10-10-10---|
|-x----------------------------x-x-x--|---------------------|--x--x--x--x--x--x--x--x---|
|-5----------------------------x-x-x--|---------------------|--8--8--8--8--8--8--8--8---|
|-------------------------------------|---------------------|---------------------------|
Guitar 2
|-------------------------------------|---------------------|
|-------------------------------------|---------------------|
|-7-7-7-7--5-5-5-5--------------------|---------------------|
|-7-7-7-7--5-5-5-5--5-5-5-5--3-3-3-3--|-3-3-3-3-3-3-3-3-----|
|-5-5-5-5--3-3-3-3--5-5-5-5--3-3-3-3--|-3-3-3-3-3-3-3-3--X4-|
|-------------------3-3-3-3--1-1-1-1--|-1-1-1-1-1-1-1-1-----|

Chorus
Guitar 1
|-10101010101010108-8-8-8-8-8-8-8----------------------------------|(----)
|-x-x-x-x-x-x-x-x-x-x-x-x-x-x-x-x-8-8-8-8-8-8-8-8-6-6-6-6-6-6-6-6--|(----)
|-7-7-7-7-7-7-7-7-5-5-5-5-5-5-5-5-x-x-x-x-x-x-x-x-x-x-x-x-x-x-x-x--|(----)
|---------------------------------5-5-5-5-5-5-5-5-3-3-3-3-3-3-3-3--|(----)
|------------------------------------------------------------------|(----)
|------------------------------------------------------------------|(----)
Guitar 2
|------------------------------------------------------------------|(----)
|------------------------------------------------------------------|(----)
|-7-7-7-7-7-7-7-7-5-5-5-7-7-5-5-5-----------------5-5-5-7-7-5-5-5--|(-7\-)
|-7-7-7-7-7-7-7-7-x-x-x-x-x-x-x-x-5-5-5-5-5-5-5-5-x-x-x-x-x-x-x-x--|(-7\-)
|-5-5-5-5-5-5-5-5-3-3-3-5-5-3-3-3-5-5-5-5-5-5-5-5-3-3-3-3-3-3-3-3--|(-5\-)
|---------------------------------3-3-3-3-3-3-3-3------------------|(----) 

Bridge
Guitar 1
|---------------------------------|--------------------|
|---------------------------------|--------------------|
|-7-7-7-7-5-5-5-5-----------------|--------------------|
|-7-7-7-7-5-5-5-5-5-5-5-5-3-3-3-3-|-7-7-7-7-7-7-7-7----|
|-5-5-5-5-3-3-3-3-5-5-5-5-3-3-3-3-|-7-7-7-7-7-7-7-7-X4-|
|-----------------3-3-3-3-1-1-1-1-|-5-5-5-5-5-5-5-5----|
Guitar 2:
|---------------------------------|--------------------|--------------------------------|
|---------------------------------|--------------------|--------------------------------|
|-7-7-7-7-5-5-5-5-----------------|--------------------|6-6-6-6-6-6-6-6-6/7-7-7-7/9-9-7/|
|-7-7-7-7-5-5-5-5-5-5-5-5-3-3-3-3-|-7-7-7-7-7-7-7-7----|x-x-x-x-x-x-x-x-x-x-x-x-x-x-x-x-|
|-5-5-5-5-3-3-3-3-5-5-5-5-3-3-3-3-|-7-7-7-7-7-7-7-7-X2-|4-4-4-4-4-4-4-4-4/5-5-5-5/7-7-5/|
|-----------------3-3-3-3-1-1-1-1-|-5-5-5-5-5-5-5-5----|--------------------------------|

BASS SOLO

Brige continuation
Guitar 1
|-10-10----------10--|
|-10-10----------10--|
|--7--7-x-x--x-x--7--|
|-------x-x--x-x-----|
|-------x-x--x-x-----|
|--------------------|
Guitar2
|-------------------|
|-------------------|
|--8-10-10----------|
|--x--x--x----------|
|--6--8--8----------|
|-------------------|

End
Guitar 1:
|--------------------------------------|-------------------------|
|--------------------------------------|-------------------------|
|-7-7-7-7--5-5-5-5---------------------|-7-7-7-7-7\--7--7-7-7-7\-|
|-7-7-7-7--5-5-5-5--5-5-5-5--3-3-3-3---|-7-7-7-7-7\--7--7-7-7-7\-|
|-5-5-5-5--3-3-3-3--5-5-5-5--3-3-3-3---|-5-5-5-5-5\--5--5-5-5-5\-|
|-------------------3-3-3-3--1-1-1-1---|-------------------------|
Guitar 2 
|-------------------------------------------------|----------------------------------|
|-------------------------------------------------|----------------------------------|
|-10-10-10-10-10-10-10-10-10-10-10-10-10-10-10-10-|-10-10-10-10-10\--10--10-10-10-10\|
|-x--x--x--x--x--x--x--x--x--x--x--x--x--x--x--x--|--x--x--x--x--x----x---x--x--x--x-|
|-8--8--8--8--8--8--8--8--8--8--8--8--8--8--8--8--|--8--8--8--8--8\---8---8--8--8--8\|
|-------------------------------------------------|----------------------------------|

Intro
Riff
Verse
Chorus
Verse
Chorus
Bridge
Chorus
End
00:00 / 00:00
Outros vídeos desta música
Repetir
Outros vídeos desta música
Composição de Nikola Sarcevic
Colaboração e revisão:
  • Igor Alexander
5.164 exibições
    • ½ Tom
    • A
    • Bb
    • B
    • C
    • Db
    • D
    • Eb
    • E
    • F
    • F#
    • G
    • Ab
  • Adicionar à lista

    0 comentários

    Ver todos os comentários

    Conseguiu tocar?

    0 Tocaram 0 Ainda não

    Grave um vídeo tocando Man or Mouse e nos envie!

    Entre para oCifra Club PRO

    Tenha acesso a benefícios exclusivos no App e no Site

    • Chega de anúncios

    • Prioridade de compra em lançamentos

    • Mais recursos no app do Afinador

    • Atendimento Prioritário

    • Descontos nos produtos Cifra Club

    • Ajude a produzir mais conteúdo

    00:00 / 00:00

    Cifra Club Pro

    Aproveite o Cifra Club com benefícios exclusivos e sem anúncios
    Cifra Club Pro
    Aproveite o Cifra Club com benefícios exclusivos e sem anúncios
    OK