Cifra Club

Mr. Clean

Millencolin

Cifra: Principal (violão e guitarra)
tom: A
(Mr clean tell...)                              let ring...
                                                  
 Palm Mute
e-|------------------------------------------------------------|
B-|------------------------------------------------------------|
G-|------------------------------------------------------------|
D-|-4-4-4-4-4-4-4-4-4-4-6-6-4-4-4-4-4-4-4-4-4-4-4-4-4-4-4-4-4-4-4-4-5-5-|
A-|-2-2-2-2-2-2-2-2-2-2-4-4-6-6-6-6-6-6-6-6-6-6-4-4-4-4-4-4-4-4-4-4-5-5-|
E-|---------------------------------------------2-2-2-2-2-2-2-2-2-2-3-3-|

lead guitar (intro riff)
  
e-|------------------------------------------------------|
B-|------------------------------------------------------|
G-|-11-9-11-----------11-----------9---------------------|
D-|---------9-9-9-9-9----9-9-9-9-9---10-10-10-10-10-8-8-8-8-8-|
A-|------------------------------------------------------|
E-|------------------------------------------------------|

e-|----------------------------------------------------|
B-|----------------------------------------------------|
G-|--10-----------11-----------9------------------------| 
D-|9 ---9-9-9-9-9----9-9-9-9-9---10-10-10-10-10-8-8-8-8-8-9-8-8-8-8-8-9-8-8-8-8-8-9-8| 
A-|----------------------------------------------------|
E-|----------------------------------------------------|

first verse palhetada alternada
                2x
    B       G       A       C#   G              A 

e-|----------------------------    |---------------------------|
B-|----------------------------    |---------------------------|
G-|-4--------------------------    |---------------------------|
D-|-4-------5-------7------4---    |-5--------------7----------|
A-|-2-------5-------7------4--- x2 |-7--------------7----------|
E-|---------3-------5------2---    |-7--------------5----------|

chorus

e-|-------------------------------------|
B-|-------------------------------------|
G-|-4-------7---------------------------|
D-|-4-------7-------4-------5-------5-7-|
A-|-2-------5-------4-------5-------5-7-|  repeat
E-|-----------------2-------3-------3-5-|  and go intro riff
               
second verse has same notes as first. 


(Looking back at the that were friends...)

e-|----------------------------------------------|
B-|----------------------------------------------|
G-|--------------------------4------4-2----------|
D-|-5-------7-------4--------4------4-2-5------7-|
A-|-5-------7-------4--------2------2-0-5------7-|  go to chorus
E-|-3-------5-------2-------------------3------5-|  and intro riff.
00:00 / 00:00
Outros vídeos desta música
Repetir
Outros vídeos desta música
Composição de Millencolin / Nikola Sarcevic
15.647 exibições
    • ½ Tom
    • A
    • Bb
    • B
    • C
    • Db
    • D
    • Eb
    • E
    • F
    • F#
    • G
    • Ab
  • Adicionar à lista

    0 comentários

    Ver todos os comentários

    Conseguiu tocar?

    0 Tocaram 0 Ainda não

    Grave um vídeo tocando Mr. Clean e nos envie!

    00:00 / 00:00

    Cifra Club Pro

    Aproveite o Cifra Club com benefícios exclusivos e sem anúncios
    Cifra Club Pro
    Aproveite o Cifra Club com benefícios exclusivos e sem anúncios
    OK