Cifra Club

Aprenda

No Cigar

Millencolin

Cifra: Principal (violão e guitarra)
Tom: F#
Afinação: Standard (EADGBE)

As 2 guitarras tocam riffs diferentes em algumas partes, em outras é a outra guitarra oitavada. 
Fique atento às variações de ritmo e às pausas de meio tempo em alguns compassos.

* - Palm Muting
! - Tocar só a nota e com palm muting

Intro: Riff 1 (4x)

Gtr 1 - Db5 E5 (2) A5 F#5 (2x)
Gtr 2 - Riff 1 (8x)


Db5*
Tell us where you're from
E5 (2)*
What you want to become
A5*                       F#5*
And we'll say if you're OK
Db5*
Where did you go to school?
E5 (2)*
Right answer and you're cool
A5*                               F#5*
Yeah, you're the kid the whole day
Db5
Riff 1
You get a sticker in your face
E5
Riff 1
Information about the case
A5                        F#5
Riff 1                    Riff 1
So you know your potential
Db5
Riff 1
Don't think you can extend
E5                         A5
Riff 1                     Riff 1
Don't think you can extend, just comprehend
F#5         A5*
Riff 1      xxx
But I don't wanna hear it
              A5            E5
              xxx           E5 (2)
No, it's more than I accept

                           F#5            A5
                           F#5 (2)         A5 (2)
'Cause I don't care where I belong no more
E5           F#5           A5
E5 (2)        F#5 (2)        A5 (2)
What we share or not I will ignore
Riff 2
Riff 3
I will ignore

Gtr 1 - Db5 E5 (2) A5 F#5 (2x)
Gtr 2 - Riff 1 (8x)

Db5
We'll shut you out
We'll put you in doubt
If you think that you're special
Riff 4*              Riff 4*
Db!                  E (2)!
We'll tell who you're
              Riff 4*
              F#5 (2)!
Tell that you're close but no cigar
Riff 4           A5*
Ab!     A(2)!    xxx 
But I don't wanna hear it
       A5
       Riff 1 (2x)
No it's more than I accept

        E5         F#5            A5
        E5 (2)      F#5 (2)         A5 (2)
'Cause I don't care where I belong no more
       E5       F#5        A5
       E5 (2)    F#5 (2)     A5 (2)
What we share or not I will ignore
    E5     F#5           A5
    E5 (2)  F#5 (2)        A5 (2)
And I won't waste my time fitting in
       E5     F#5                    A5     Riff 2
       E5 (2)  F#5 (2)                 A5 (2)  A5 (2)
'Cause I don't think contrast there's a sin

Riff 1  Riff 1             Riff 1
Go back where you came from
Riff 1  Riff 1      Riff 1              C#sus2
They'll tell you that I don't wanna hear
B
I don't wanna hear
A
Riff 1
I don't wanna hear
     Riff 5               Riff 6
No it's more than I accept

       E5          F#5            A5
       E5 (2)       F#5 (2)         A5 (2)
'Cause I don't care where I belong no more
       E5       F#5        A5
       E5 (2)    F#5 (2)     A5 (2)
What we share or not I will ignore
    E5     F#5           A5
    E5 (2)  F#5 (2)        A5 (2)
And I won't waste my time fitting in
       E5     F#5                  A5
       E5 (2)  F#5 (2)               A5 (2)
'Cause I don't think contrast there's a sin
Riff 2            Riff 1 (2x)
A5 (2)             xxx
No it's not a sin

Riff 1

|---------------|
|5-5-5-4-4-4-5-4|
|6-6-6-6-6-6-6-6|
|---------------|
|---------------|
|---------------|

Riff 2

|----------------------|
|----------------------|
|----11-11-13-13-14-14-|
|7-7-------------------|
|7-7-9--9--11-11-12-12-|
|5-5-------------------|

Riff 3

|-----------------------|
|-----------------------|
|11-11-11-13-13-13-14-14|
|-----------------------|
|9--9--9--11-11-11-12-12|
|-----------------------|

Riff 4

|-----------------|
|-----------------|
|-----------------|
|---2---2---2---2-|
|-4---4---4---4---|
|-----------------|

Riff 5

|17-17-17-17-17-17-17-17-17-17-17-17-17-17-17-17|
|17-17-17-17-17-17-17-17-17-17-17-17-17-17-17-17|
|-----------------------------------------------|
|-----------------------------------------------|
|-----------------------------------------------|
|-----------------------------------------------|
|-----------------------------------------------|

Riff 6

|-----------------------------------------------|
|17-17-17-17-17-17-17-17-17-17-17-17-17-17-17-17|
|16-16-16-16-16-16-16-16-16-16-16-16-16-16-16-16|
|14-14-14-14-14-14-14-14-14-14-14-14-14-14-14-14|
|-----------------------------------------------|
|-----------------------------------------------|

Acordes

 Db5 E5 E5 (2) A5 A5 (2) F#5 F#5 (2) C#sus2 B A
|-----------------------------------4----2-0|
|-----------------------------------4----4-2|
|-6------9--------14--------11------6----4-2|
|-6--2---9----7---14----4---11--------------|
|-4--2---7----7---12----4---9---------------|
|----0--------5---------2-------------------|
Composição de Millencolin
Colaboração e revisão:
  • Bruno Rosa
83.653 exibições
  • Simplificar cifra
    • ½ Tom
    • A
    • Bb
    • B
    • C
    • Db
    • D
    • Eb
    • E
    • F
    • F#
    • G
    • Ab
  • Adicionar à lista

    0 comentários

    Mostrar mais comentários

    Conseguiu tocar?

    2 Tocaram 0 Ainda não

    Grave um vídeo tocando No Cigar e mande pra gente!

    00:00 / 00:00
    outros vídeos desta música
    repetir qualidade Automático
    Outros vídeos desta música
    00:00 / 00:00
    Automático

    Cifra Club Pro

    Aproveite o Cifra Club com benefícios exclusivos e sem anúncios
    7 dias grátis
    Cifra Club Pro
    Aproveite o Cifra Club com benefícios exclusivos e sem anúncios
    7 dias grátis
    OK