Cifra Club

Nosepicker

Millencolin

Cifra: Principal (violão e guitarra)
tom: G
intro
e|--------------------
B|--------------------
G|--------------------
D|--------------------
A|-2-2-2-----2-2-2----
E|-------333-------333

e|------------------------------
B|-------------------------------
G|-4-----------------------------
D|-4-----------5-----------------
A|-2-----------5-----------------
E|-------------3--------------- 7*(harmônico pra dar akele tom de microfonia)

e|--------------------
B|--------------------
G|-4------------------
D|-4---------5 7 7 7 7
A|-2---------5 7 7 7 7
E|-----------3 5 5 5 5

B|---G---B|---G

B|---D---A---G---B|---------

Verso
B|---G---B|---G
B|---D---A---G---B|---------

Refrão
B|---G---D---A

Erik=
e|------------------------------------------
B|------------------------------------------
G|------------------------------------------
D|------------------------------------------
A|-9999999--66667777666--------------------- e dps faz isso solto
E|------------------------------------------ nota por nota em tempo maior


Fim

B|---D---A---G em acordes mesmo não em powerchord e em batida de ska

ERIK
e|------------------------
B|------------------------
G|------------------------
D|-----4----2----2----0---
A|--2--------------------2
E|------------------------
00:00 / 00:00
Outros vídeos desta música
Repetir
Outros vídeos desta música
Compositor não encontrado.
Colaboração e revisão:
  • rafael ribeiro
722 exibições
    • ½ Tom
    • A
    • Bb
    • B
    • C
    • Db
    • D
    • Eb
    • E
    • F
    • F#
    • G
    • Ab
  • Adicionar à lista

    0 comentários

    Ver todos os comentários

    Conseguiu tocar?

    0 Tocaram 0 Ainda não

    Grave um vídeo tocando Nosepicker e nos envie!

    Entre para oCifra Club PRO

    Tenha acesso a benefícios exclusivos no App e no Site

    • Chega de anúncios

    • Prioridade de compra em lançamentos

    • Mais recursos no app do Afinador

    • Atendimento Prioritário

    • Descontos nos produtos Cifra Club

    • Ajude a produzir mais conteúdo

    00:00 / 00:00

    Cifra Club Pro

    Aproveite o Cifra Club com benefícios exclusivos e sem anúncios
    Cifra Club Pro
    Aproveite o Cifra Club com benefícios exclusivos e sem anúncios
    OK