Cifra Club

Pepper

Millencolin

Cifra: Principal (violão e guitarra)
tom: B
Intro 
e-|-----------------------------| 
B-|-----------------------------| 
G-|--4-4---4-4-4---4-4-4---4-4--| 
D-|--4-4---4-4-4---4-4-4---4-4--| 
A-|--2-2---2-2-2---2-2-2---2-2--| 
E-|-----------------------------| 

Verse - (x2) 
e-|--------------------------------------------------------------------| 
B-|--------------------------------------------------------------------| 
G-|--4-4---4-4-4---4-4-4---4-4-4-------4-4---4-4-4---------------------| 
D-|--4-4---4-4-4---4-4-4---4-4-4---0---2-2---2-2-2--0---6-6---6---4-4--| 
A-|--2-2---2-2-2---2-2-2---2-2-2---0----------------0---6-6---6---4-4--| 
E-|-----------------------------------------------------4-4---4---2-2--| 

Chorus 
e-|------------------------------------------------------------------------| 
B-|------------------------------------------------------------------------| 
G-|---------------------------------4--------------------------------------| 
D-|--6---------4---------2----------4-(x8)----6---------4----------2-------| 
A-|--6-(x8)----4-(x8)----2-(x8)-----2---------6-(x8)----4-(x8)-----2-(x8)--| 
E-|--4---------2---------0--------------------4---------2----------0-------| 

e-|-----------------------------| 
B-|-----------------------------| 
G-|--4-4---4-4-4---4-4-4---4-4--| 
D-|--4-4---4-4-4---4-4-4---4-4--| 
A-|--2-2---2-2-2---2-2-2---2-2--| 
E-|-----------------------------| 

Verse 2 - (x2) 
e-|--------------------------------------------------------------------| 
B-|--------------------------------------------------------------------| 
G-|--4-4---4-4-4---4-4-4---4-4-4-------4-4---4-4-4---------------------| 
D-|--4-4---4-4-4---4-4-4---4-4-4---0---2-2---2-2-2--0---6-6---6---4-4--| 
A-|--2-2---2-2-2---2-2-2---2-2-2---0----------------0---6-6---6---4-4--| 
E-|-----------------------------------------------------4-4---4---2-2--| 

Chorus 2 
e-|------------------------------------------------------------------------------| 
B-|------------------------------------------------------------------------------| 
G-|----------------------------------4---------------------------------------4~--| 
D-|--6---------4----------2----------4-(x8)----6---------4----------2--------4~--| 
A-|--6-(x8)----4-(x8)-----2-(x8)-----2---------6-(x8)----4-(x8)-----2-(x8)---2~--| 
E-|--4---------2----------0--------------------4---------2----------0------------| 

Bridge - [ Palm-mute the chord that follows the x's ] 
e-|-----------------------------------------------------------------| 
B-|-----------------------------------------------------------------| 
G-|------------------x-x-4---x-x-4---x-x-3---x-x-3---x-x-4---x-x-4--| 
D-|--x-x-6---x-x-4---x-x-4---x-x-4---x-x-1---x-x-1---x-x-2---x-x-2--| 
A-|--x-x-6---x-x-4---x-x-2---x-x-2----------------------------------| 
E-|--x-x-4---x-x-2--------------------------------------------------| 

e-|-----------------------------------------------------------| 
B-|-----------------------------------------------------------| 
G-|------------------x-x-4---x-x-4---x-x-3---x-x-3---4-(x16)--| 
D-|--x-x-6---x-x-4---x-x-4---x-x-4---x-x-1---x-x-1---2--------| 
A-|--x-x-6---x-x-4---x-x-2---x-x-2----------------------------| 
E-|--x-x-4---x-x-2--------------------------------------------| 

e-|-----------------------------| 
B-|-----------------------------| 
G-|--4-4---4-4-4---4-4-4---4-4--| 
D-|--4-4---4-4-4---4-4-4---4-4--| 
A-|--2-2---2-2-2---2-2-2---2-2--| 
E-|-----------------------------| 

Chorus 3 
e-|----------------------------------------------------------------------------| 
B-|----------------------------------------------------------------------------| 
G-|-------------------------------4----------------------------------------4~--| 
D-|--6---------4---------2--------4-(x8)-----6---------4----------2--------4~--| 
A-|--6-(x8)----4-(x8)----2-(x8)---2----------6-(x8)----4-(x8)-----2-(x8)---2~--| 
E-|--4---------2---------0-------------------4---------2----------0------------| 
00:00 / 00:00
Outros vídeos desta música
Repetir
Outros vídeos desta música
Composição de Erik Ohlsson / Fredrik Larzon / Mathias Färm / Nikola Sarcevic
Colaboração e revisão:
  • Lucas
4.626 exibições
    • ½ Tom
    • A
    • Bb
    • B
    • C
    • Db
    • D
    • Eb
    • E
    • F
    • F#
    • G
    • Ab
  • Adicionar à lista

    0 comentários

    Ver todos os comentários

    Conseguiu tocar?

    0 Tocaram 0 Ainda não

    Grave um vídeo tocando Pepper e nos envie!

    Entre para oCifra Club PRO

    Tenha acesso a benefícios exclusivos no App e no Site

    • Chega de anúncios

    • Prioridade de compra em lançamentos

    • Mais recursos no app do Afinador

    • Atendimento Prioritário

    • Descontos nos produtos Cifra Club

    • Ajude a produzir mais conteúdo

    00:00 / 00:00

    Cifra Club Pro

    Aproveite o Cifra Club com benefícios exclusivos e sem anúncios
    Cifra Club Pro
    Aproveite o Cifra Club com benefícios exclusivos e sem anúncios
    OK