Cifra Club

Aprenda

Puzzle

Millencolin

Cifra: Principal (violão e guitarra)
Tom: A
Versão 1
--------



    if you play it in different way, kinly send it back to me. 
    Thanks!

x:Palm Muting

Intro:
e|-----------------------------------------------------|
B|-----------------------------------------------------|
G|-----------9--7--7--7-----6--6--6--7--11--11--11--9--|
D|--7--7--7--9--7--7--7--7--6--6--6--7--11--11--11--9--|X 2
A|--7--7--7--7--5--5--5--7--4--4--4--7--9 --9 --9 --7--|
E|--5--5--5--------------5-----------5-----------------|

Wait for one bass riff

Verse 1:
e|-----------|
B|-----------|
G|--6--7--9--|
D|--6--7--9--|
A|--4--5--7--|
E|-----------|

Verse 2:
e|--5--5--5--5--5--5--5--5--|
B|--5--5--5--5--5--5--5--5--|
G|--------------------------|
D|--------------------------|
A|--------------------------|
E|--------------------------|

1 time Verse 1:

Chorus:
e|--------------------------------------------------------|
B|--------------------------------------------------------|
G|--------------7--7--7--7--9--9--9--9-----------6--6--6--|
D|--4--4--4--4--7--7--7--7--9--9--9--9--7--7--7--6--6--6--|X 2
A|--4--4--4--4--5--5--5--5--7--7--7--7--7--7--7--4--4--4--|
E|--2--2--2--2--------------------------5--5--5-----------|

Verse 3:
e|--------------------------------------------------------------|
B|--------------------------------------------------------------|
G|----------------6--6-6-6-6-6----------------7--7--7-----------|
D|--7--7-7-7-7-7--6--6-6-6-6-6--4--4-4-4-4-4--7--7--7--7--7--7--|
A|--7--7-7-7-7-7--4--4-4-4-4-4--4--4-4-4-4-4--5--5--5--7--7--7--|
E|--5--5-5-5-5-5----------------2--2-2-2-2-2-----------5--5--5--|
       x x x x x     x x x x x     x x x x x

1 time Verse 1              G|--9--|
1 time Verse 3              D|--9--|
1 time Verse 1              A|--7--|              
4 times Chorus (finish with E|-----|)
2 times Intro             
                
Bridge: Guitar 1   
e|----------|
B|----------|
G|--9-------|
D|--9-------|
A|--7--...--|
E|----------|

Bridge: Guitar 2
e|---------------------------------------------|
B|----------10--10--10--9--9--9--(...waw-waw)--|
G|--9--...-------------------------------------|
D|---------------------------------------------|
A|---------------------------------------------|
E|---------------------------------------------|

Verse 4:
e|--------------------------------------------------|
B|--------------------------------------------------|
G|--7--7--7--7--6--6--6--6--4--4--4--4--9--9--9--9--|
D|--7--7--7--7--6--6--6--6--4--4--4--4--9--9--9--9--|
A|--5--5--5--5--4--4--4--4--2--2--2--2--7--7--7--7--|
E|--------------------------------------------------|

1 time Bridge
1 time Verse 4

Post Bridge:
e|-------------------------|
B|-------------------------|
G|-------------------------|
D|--7--7--7--7-------7--6--|
A|--7--7--7--7-------7--6--|
E|--5--5--5--5--...--5--4--|

                            G|--9--|
                            D|--9--|
                            A|--7--|              
4 times Chorus (finish with E|-----|)
4 times Intro 

D|--7--|
A|--7--|
E|--5--|

===============================================================================

Versão 2
--------
MILLENCOLIN
PUZZLE 
login-veio



Intro


    A        B A        B A        B C#       B         


e-|---------------------------------------------|
B-|---------------------------------------------|
G-|-2--2-2-2-4-2--2-2-2-4-2--2-2-2-4-6--6-6-6-4-|
D-|-2--2-2-2-4-2--2-2-2-4-2--2-2-2-4-6--6-6-6-4-|
A-|-0--0-0-0-2-0--0-0-0-2-0--0-0-0-2-4--4-4-4-2-|
E-|---------------------------------------------| repeat
        


1st verse


    C#      D       E


e-|---------------------------------|
B-|---------------------------------|
G-|-6-6-6-6-7-7-7-7-9-9-9-9-9-9-9-9-|
D-|-6-6-6-6-7-7-7-7-9-9-9-9-9-9-9-9-|
A-|-4-4-4-4-5-5-5-5-7-7-7-7-7-7-7-7-| repeat after a part
E-|---------------------------------| with vocals only



Chorus


    F#      D       E       A   C#  B


e-|-----------------------------------|
B-|-----------------------------------|
G-|---------7-7-7-7-9-9-9-9-----6-6-4-|
D-|-4-4-4-4-7-7-7-7-9-9-9-9-7-7-6-6-4-|
A-|-4-4-4-4-5-5-5-5-7-7-7-7-7-7-4-4-2-|
E-|-2-2-2-2-----------------5-5-------| repeat



2nd verse




e-|------------------------------------------------------
-----------------------------|
B-|------------------------------------------------------
-----------------------------|
G-|-2-------------------6---------7-7-7-7-7-6-6-6-6-6-7-
7-7-7-7-9-9-9-9-9-9-9-9-9-9-9-|
D-|-2-2-2-2-2-4---------6-6-6-6-6-7-7-7-7-7-6-6-6-6-6-7-
7-7-7-7-9-9-9-9-9-9-9-9-9-9-9-|
A-|-0-0-0-0-0-4-4-4-4-4-4-4-4-4-4-5-5-5-5-5-4-4-4-4-4-5-
5-5-5-5-7-7-7-7-7-7-7-7-7-7-7-|
E-|-----------2-2-2-2-2----------------------------------
-----------------------------|


      pm.....   pm.....   pm.....            repeat and 
back to chorus but this time
                                                chorus 
ends with an extra F# D E E


Back to intro than...


Bridge


e-|------------------------------------------------------
-------------------|
B-|------------------------------------------------------
-------------------|
G-|---------------------------------------------7-7--7-6-
-6-6--------9--9-9-|
D-|-2-2-2-2-2-2-2-2-2-2-2/7-7-7-7-7-6-6-6-6-6-4-7-7--7-6-
-6-6-9--9-9-9--9-9-|
A-|---------------------------------------------5-5--5-4-
-4-4-9--9-9-7--7-7-|
E-|------------------------------------------------------
-----7--7-7--------| repeat


e-|-----------------------------------------------------|
B-|-----------------------------------------------------|
G-|-----------------------------------------------------
|     / = slide
D-|-7-----------------7-----------------7/4-------------|
A-|-7-----------------7-----------------7/4-----chorus--
|     pm = palm mute
E-|-5-5-5-5-5-5-5-5-5-5-5-5-5-5-5-5-5-5-5/2-------------|


      pm.............   pm............
Composição de Nikola Sarcevic
3.569 exibições
    • ½ Tom
    • A
    • Bb
    • B
    • C
    • Db
    • D
    • Eb
    • E
    • F
    • F#
    • G
    • Ab
  • Adicionar à lista

    0 comentários

    Mostrar mais comentários

    Conseguiu tocar?

    0 Tocaram 0 Ainda não

    Grave um vídeo tocando Puzzle e mande pra gente!

    00:00 / 00:00
    outros vídeos desta música
    repetir qualidade Automático
    Outros vídeos desta música
    00:00 / 00:00
    Automático

    Cifra Club Pro

    Aproveite o Cifra Club com benefícios exclusivos e sem anúncios
    7 dias grátis
    Cifra Club Pro
    Aproveite o Cifra Club com benefícios exclusivos e sem anúncios
    7 dias grátis
    OK