Cifra Club

Ray

Millencolin

Cifra: Principal (violão e guitarra)
tom: B
Vers 1e2, Guitarra 1: \"Hey what the hell..\" / \"Okay you see..\"      
e: -----------------------------------------------------|
B: -----------------------------------------------------|
G: ---------------------------8-88-9-9-99-----------xx--|
D: -9-99-9-9-99--9-99-9-9-99--8-88-9-9-99--9-99-9-9-xx--|
A: -9-99-9-9-99--9-99-9-9-99--6-66-7-7-77--9-99-9-9-xx--|
E: -7-77-7-7-77--7-77-7-7-77---------------7-77-7-7-xx--| 2x

   Verso 2, Guitarra 2; \"Okay you see..\"
e: -7-77-7-7-77--7-77-7-7-77--6-66-7-7-77--7-77-7-7-77--|
B: -7-77-7-7-77--7-77-7-7-77--7-77-7-7-77--7-77-7-7-77--|
G: -8-88-8-8-88--8-88-8-8-88--8-88-9-9-99--8-88-8-8-88--|
D: -9-99-9-9-99--9-99-9-9-99--8-88-9-9-99--9-99-9-9-99--|
A: -9-99-9-9-99--9-99-9-9-99--6-66-7-7-77--9-99-9-9-99--|
E: -7-77-7-7-77--7-77-7-7-77---------------7-77-7-7-77--| 1x

   Pre-Chorus 1, Guitarra 1: \"For all you know..\"
e: -------------------------------------------------------------------------|
B: -------------------------------------------------------------------------|
G: ---------------------4-44-4-4-44-----------------------------------------|
D: -66666666--22222222--4-44-4-4-44--66666666--44444444--22222222-22222222--|
A: -66666666--22222222--2-22-2-2-22--66666666--44444444--22222222-22222222--|
E: -44444444--00000000---------------44444444--22222222--00000000-00000000--| 1x

   Pre-Chorus 1, Guitarra 2: \"For all you know..\"
e: -------------------------------------------------------------------------|
B: -------------------------------------------------------------------------|
G: ---------------------4-44-4-4-44-----------------------------------------|
D: -66666666--22222222--4-44-4-4-44--66666666--44444444--99999999-99999999--|
A: -66666666--22222222--2-22-2-2-22--66666666--44444444--xxxxxxxx-xxxxxxxx--|
E: -44444444--00000000---------------44444444--22222222--77777777-77777777--| 1x

   Chorus 1. Guitarra 1: \"So shut your mouth..\" / \"Now is it so hard..\"
e: -----------------------------------------------------------------------|
B: -----------------------------------------------------------------------|
G: -44444444-44444444--33333333-33333333------------33333333--1-11-11-11--|
D: -44444444-44444444--44444444-44444444--66666666--44444444--2-22-22-22--|
A: -22222222-22222222--44444444-44444444--66666666--44444444--2-22-22-22--|
E: --------------------22222222-22222222--44444444--22222222--0-00-00-00--| 2x

   Chorus 1, Guitarra 2: \"So shut your mouth..\" / \"Now is it so hard..\"
e: -----------------------------------------------------------------------|
B: -----------------------------------------------------------------------|
G: -44444444-44444444--33333333-33333333------------33333333--9-99-99-99--|
D: -44444444-44444444--44444444-44444444--66666666--44444444--x-xx-xx-xx--|
A: -22222222-22222222--44444444-44444444--66666666--44444444--7-77-77-77--|
E: --------------------22222222-22222222--44444444--22222222--------------| 2x

   Verse 3&4, Guitarra1: \"So what the hell..\" / \"You take for granted..\"
e: -----------------------------------------------------|
B: -----------------------------------------------------|
G: ---------------------------8-88-9-9-99-----------xx--|
D: -9-99-9-9-99--4-99-9-9-99--8-88-9-9-99--9-99-9-9-xx--|
A: -9-99-9-9-99--4-99-9-9-99--6-66-7-7-77--9-99-9-9-xx--|
E: -7-77-7-7-77--2-77-7-7-77---------------7-77-7-7-xx--| 2x
                 L-> 2nd time play a B5 chord (799)

   Verse 3, Guitarra 2: \"So what the hell..\"
e: ----------------77-7-7-77--6-66-7-7-77--7-77-7-7-77--|
B: ----------------77-7-7-77--7-77-7-7-77--7-77-7-7-77--|
G: ----------------88-8-8-88--8-88-9-9-99--8-88-8-8-88--|
D: --------------4-99-9-9-99--8-88-9-9-99--9-99-9-9-99--|
A: --------------4-99-9-9-99--6-66-7-7-77--9-99-9-9-99--|
E: --------------2-77-7-7-77---------------7-77-7-7-77--| 1x

   Verse 4, Guitarra 2: \"You take for granted..\"
e: -7-77-7-7-77--7-77-7-7-77--6-66-7-7-77--7-77-7-7-77--|
B: -7-77-7-7-77--7-77-7-7-77--7-77-7-7-77--7-77-7-7-77--|
G: -8-88-8-8-88--8-88-8-8-88--8-88-9-9-99--8-88-8-8-88--|
D: -9-99-9-9-99--9-99-9-9-99--8-88-9-9-99--9-99-9-9-99--|
A: -9-99-9-9-99--9-99-9-9-99--6-66-7-7-77--9-99-9-9-99--|
E: -7-77-7-7-77--7-77-7-7-77---------------7-77-7-7-77--| 1x

   Pre-Chorus 2, Guitarra 1: \"For all you know..\"
e: -------------------------------------------------------------------------|
B: -------------------------------------------------------------------------|
G: ---------------------4-44-4-4-44-----------------------------------------|
D: -66666666--22222222--4-44-4-4-44--66666666--44444444--22222222-22222222--|
A: -66666666--22222222--2-22-2-2-22--66666666--44444444--22222222-22222222--|
E: -44444444--00000000---------------44444444--22222222--00000000-00000000--| 1x

   Pre-Chorus 2, Guitarra 2: \"For all you know..\"
e: -------------------------------------------------------------------------|
B: -------------------------------------------------------------------------|
G: ---------------------4-44-4-4-44-----------------------------------------|
D: -66666666--22222222--4-44-4-4-44--66666666--44444444--99999999-99999999--|
A: -66666666--22222222--2-22-2-2-22--66666666--44444444--xxxxxxxx-xxxxxxxx--|
E: -44444444--00000000---------------44444444--22222222--77777777-77777777--| 1x

   Chorus 2. Guitarra 1: \"So shut your mouth..\" / \"Now is it so hard..\"
e: -----------------------------------------------------------------------|
B: -----------------------------------------------------------------------|
G: -44444444-44444444--33333333-33333333------------33333333--1-11-11-11--|
D: -44444444-44444444--44444444-44444444--66666666--44444444--2-22-22-22--|
A: -22222222-22222222--44444444-44444444--66666666--44444444--2-22-22-22--|
E: --------------------22222222-22222222--44444444--22222222--0-00-00-00--| 2x

   Chorus 2, Guitarra 2: \"So shut your mouth..\" / \"Now is it so hard..\"
e: -----------------------------------------------------------------------|
B: -----------------------------------------------------------------------|
G: -44444444-44444444--33333333-33333333------------33333333--9-99-99-99--|
D: -44444444-44444444--44444444-44444444--66666666--44444444--x-xx-xx-xx--|
A: -22222222-22222222--44444444-44444444--66666666--44444444--7-77-77-77--|
E: --------------------22222222-22222222--44444444--22222222--------------| 2x   

   Bridge, Guitarra 1: \"I\'m losing you..\"
   1st x                 2,3,4,5,6th x          7th x 
e: --------------------|-----------------------|----------|
B: --------------------|-----------------------|----------|
G: -99999999-99999999--|-11----11/13--9--9/11--|-11-------|
D: -xxxxxxxx-xxxxxxxx--|-x-----x-/x---x--x/x---|-x--------|
A: -77777777-77777777--|-9-----9-/11--7--7/9---|-9---16x--|
E: --------------------|-----------------------|----------| 1x

   Bridge, Guitarra 2: Starts at second \"I\'m losing you..\"
   7x                    1x
e: ---------------------|----------|
B: ---------------------|----------|
G: -1111-999-888--6--4--|-11-------|
D: -x-x--xxx-xxx--x--x--|-x--------|
A: -9-9--777-666--4--2--|-9---16x--|
E: ---------------------|----------|

   Chorus 3, Guitarra 1: \"So shut your mouth..\" / \"Now is it so hard..\"
e: -----------------------------------------------------------------------|
B: -----------------------------------------------------------------------|
G: -44444444-44444444--33333333-33333333------------33333333--1-11-11-11--|
D: -44444444-44444444--44444444-44444444--66666666--44444444--2-22-22-22--|
A: -22222222-22222222--44444444-44444444--66666666--44444444--2-22-22-22--|
E: --------------------22222222-22222222--44444444--22222222--0-00-00-00--| 2x

   Chorus 3, Guitarra 2: \"So shut your mouth..\" / \"Now is it so hard..\"
e: -----------------------------------------------------------------------|
B: -----------------------------------------------------------------------|
G: -44444444-44444444--33333333-33333333------------33333333--9-99-99-99--|
D: -44444444-44444444--44444444-44444444--66666666--44444444--x-xx-xx-xx--|
A: -22222222-22222222--44444444-44444444--66666666--44444444--7-77-77-77--|
E: --------------------22222222-22222222--44444444--22222222--------------| 2x

   Chorus 4, Guitarra 1: \"Cuz I change with time..\" / \"I change with time..\"
e: -----------------------------------------------------------------------|
B: -----------------------------------------------------------------------|
G: -44444444-44444444--33333333-33333333------------33333333--1-11-11-11--|
D: -44444444-44444444--44444444-44444444--66666666--44444444--2-22-22-22--|
A: -22222222-22222222--44444444-44444444--66666666--44444444--2-22-22-22--|
E: --------------------22222222-22222222--44444444--22222222--0-00-00-00--| 2x

   Chorus 4, Guitarra 2: \"Cuz I Change with time..\"
   3x                    1x
e: ---------------------|------------------------------------|
B: ---------------------|------------------------------------|
G: -1111-999-888--6--4--|-1111111111111111-1313131313131313--|
D: -x-x--xxx-xxx--x--x--|-x-x-x-x-x-x-x-x--x-x-x-x-x-x-x-x---|
A: -9-9--777-666--4--2--|-9-9-9-9-9-9-9-9--1111111111111111--|
E: ---------------------|------------------------------------| 2x

   Final, Guitarra 1: \"Changiiiiiiiiiiiiing\"
e: ------------------------|
B: ------------------------|
G: --99999999-99999999--4--|
D: --xxxxxxxx-xxxxxxxx--4--|
A: --77777777-77777777--2--|
E: ------------------------|

   Final, Guitarra 2: \"Changiiiiiiiiiiiiing\"
e: ---------------------------------------|
B: ---------------------------------------|
G: -1616161616161616-1616161616161616-16--|
D: -x-x-x-x-x-x-x-x--x-x-x-x-x-x-x-x--x---|
A: -1414141414141414-1414141414141414-14--|
E: ---------------------------------------|
00:00 / 00:00
Outros vídeos desta música
Repetir
Outros vídeos desta música
Composição de Erik Ohlsson / Fredrik Larzon / Mathias Färm / Nikola Sarcevic / Nikola Sarsevic
Colaboração e revisão:
  • henrique brunelli
10.430 exibições
    • ½ Tom
    • A
    • Bb
    • B
    • C
    • Db
    • D
    • Eb
    • E
    • F
    • F#
    • G
    • Ab
  • Adicionar à lista

    0 comentários

    Ver todos os comentários

    Conseguiu tocar?

    0 Tocaram 0 Ainda não

    Grave um vídeo tocando Ray e nos envie!

    00:00 / 00:00

    Cifra Club Pro

    Aproveite o Cifra Club com benefícios exclusivos e sem anúncios
    Cifra Club Pro
    Aproveite o Cifra Club com benefícios exclusivos e sem anúncios
    OK