Cifra Club

Dead Guy

Ministry

Cifra: Principal (violão e guitarra)
Selo Cifra Club: esta cifra foi revisada para atender aos critérios oficiais da nossa Equipe de Qualidade.
tom: A
Intro Riff (Also used after "I'm/you're the dead guy!")
A harmonic at the 4th fret is played in the background here and in a few other
places in the song.

E |-----------|-----------------|
B |-----------|-----------------|
G |.---------.|-----------------|
D |.-7-6-5-4-.|-----------------|
A |--7-6-5-4--|-----------------|
E |--5-4-3-2--|--2p0-2-2-0h2-2--|

Main Riff
E |--------------------------------------------------|
B |--------------------------------------------------|
G |.-------------------------------------------------|
D |.--4-4-2-4----4-4-2-4----4-4-2-4--4-4-------------|
A |---4-4-2-4----4-4-2-4----4-4-2-4--4-4-------------|
E |---2-2-0-2----2-2-0-2----2-2-0-2--2-2-0h2-0-2-0---|

E|--------------------|
B|--------------------|
G|--4/5--------------.|
D|--4/5--7/88---3/5--.|
A|--2/3--7/88---3/5---|
E|-------5/66---1/3---|

Wah Riff (:49),(2:11)  (Tremolo pick all these. Listen to the
album for the timing. These are not spaced correctly, but close
together for space's sake. They are in actuality way far apart.)
E|--------------------------------------------------------------|
B|--------------------------------------------------------------|
G|--6------7------/12----11----9/11----6---7---4---5---6--------|
D|--------------------------------------------------------------|
A|--4------5------/10----9-----7/9-----4---5---2---3---4--------|
E|--------------------------------------------------------------|

Outro Wah Riff (Same deal. For the rhythm, just use the F#5 - E5 - F#5 part
                from Main Riff.)
E |------------------------------|
B |------------------------------|
G |.--6---8----/13----9----11---.|
D |.----------------------------.|
A |---4---6----/11----7----9-----|
E |------------------------------|
Outros vídeos desta música
    208 exibições
      • ½ Tom
      • A
      • Bb
      • B
      • C
      • Db
      • D
      • Eb
      • E
      • F
      • F#
      • G
      • Ab
    • Adicionar à lista

    Afinação da cifra

    Afinador online

      0 comentários

      Ver todos os comentários

      Entre para o Cifra Club PRO

      Tenha acesso a benefícios exclusivos no App e no Site

      • Chega de anúncios

      • Badges exclusivas

      • Mais recursos no app do Afinador

      • Atendimento Prioritário

      • Aumente seu limite de lista

      • Ajude a produzir mais conteúdo

      Cifra Club Pro

      Aproveite o Cifra Club com benefícios exclusivos e sem anúncios
      Cifra Club Pro
      Aproveite o Cifra Club com benefícios exclusivos e sem anúncios
      Ops (: Contenido disponible sólo en portugués.
      OK