Cifra Club

Aprenda

Fiend Without A Face

Misfits

Cifra: Principal (violão e guitarra)
tom: G
Intro:
E|-------------|--------------------|
B|-------------|--------------------|
G|-----2---4---|-----2---4------3---|
D|-2---2---4---|-2---2---4------3---|
A|-2---0---2---|-2---0---2------1---|
E|-0-----------|-0------------------|

Verso:
E|-----------------------------------|
B|-----------------------------------|
G|-----4---2---4---2-------4---4/----|
D|-2---4---2---4---2---2---4---4/----|
A|-2---2---0---2---0---2---2---2/----|
E|-0-------------------0-------------|

Refrão:
E|-------------|---------------------|
B|-------------|---------------------|
G|-----2---4---|-----2---4---4---3---|
D|-2---2---4---|-2---2---4---4---3---|
A|-2---0---2---|-2---0---2---2---1---|
E|-0-----------|-0-------------------|

Outro:
E|---------------------------------|
B|---------------------------------|
G|-----------------4-4-4-4-2-2-2-2-|
D|-222-2-2-2-2-2---4-4-4-4-2-2-2-2-|
A|-222-2-2-2-2-2---2-2-2-2-0-0-0-0-|
E|-000-0-0-0-0-0-------------------|
Composição de Michale Graves
Colaboração e revisão:
  • Erik .:Punk:.
442 exibições
    • ½ Tom
    • A
    • Bb
    • B
    • C
    • Db
    • D
    • Eb
    • E
    • F
    • F#
    • G
    • Ab
  • Adicionar à lista

    0 comentários

    Ver todos os comentários

    Conseguiu tocar?

    0 Tocaram 0 Ainda não

    Grave um vídeo tocando Fiend Without A Face e nos envie!

    00:00 / 00:00
    outros vídeos desta música
    repetir qualidade Automático
    Outros vídeos desta música
    00:00 / 00:00
    Automático

    Cifra Club Pro

    Aproveite o Cifra Club com benefícios exclusivos e sem anúncios
    Cifra Club Pro
    Aproveite o Cifra Club com benefícios exclusivos e sem anúncios
    OK