Cifra Club

Aprenda

Mars Attacks

Misfits

Cifra: Principal (violão e guitarra)
tom: G
Intro:
E|------------| Tenta manter essa intro abafada até o 1º verso
B|------------|
G|------------|
D|------------|
A|-6666666666-|
E|-4444444444-|
   xxxxxxxxxx

Verso 1
E|-----------------------------------------| (2x)
B|-----------------------------------------|
G|------------444444444--------------------|
D|------------222222222--------------------|
A|-666666666------------444444444-66666666-|
E|-444444444------------222222222-44444444-|
    xxxxxxx    xxxxxxx   xxxxxxx   xxxxxxx

Refrão 1

E|---------------------------------------------------------------------------|
B|-----------------------------------------------------222222----------------|
G|-----------------------------------------------------222222----------------|
D|----666666----4---666666----4---444444----4---999999-000000-666666-4444444-|
A|-6~-444444-467-76-444444-467-76-222222-467-76-777777--------444444-2222222-|
E|-4~------------------------------------------------------------------------|
      xxxxxx                                                          xxxxxx

E|-------------------------------------------------------------------------|
B|---------------------------------------------------222222----------------|
G|---------------------------------------------------222222----------------|
D|------------4---666666----4---444444----4---999999-000000-666666-4444444-|
A|--666666-467-76-444444-467-76-222222-467-76-777777--------444444-2222222-|
E|--444444-----------------------------------------------------------------|
    xxxxxx                                                          xxxxxx

Volta pra intro

Verso 2

E|---------------------------------------|
B|---------------------------------------|
G|----------44444444/8-------------------|
D|----------22222222/6-------------------|
A|-66666666------------44444444-66666666-|
E|-44444444------------22222222-44444444-|
                  xx

Refrão 2

E|---------------------------------------------------------------------------|
B|-----------------------------------------------------222222----------------|
G|-----------------------------------------------------222222----------------|
D|----666666----4---666666----4---444444----4---999999-000000-666666-4444444-|
A|-6~-444444-467-76-444444-467-76-222222-467-76-777777--------444444-2222222-|
E|-4~------------------------------------------------------------------------|
      xxxxxx                                                          xxxxxx

E|-------------------------------------------------------------------------|
B|---------------------------------------------------222222----------------|
G|---------------------------------------------------222222----------------|
D|------------4---666666----4---444444----4---999999-000000-666666-4444444-|
A|--666666-467-76-444444-467-76-222222-467-76-777777--------444444-2222222-|
E|--444444-----------------------------------------------------------------|
    xxxxxx                                                          xxxxxx

Repete o último refrão 3 vezes,daí na 4ª vez você vai tocar assim

E|------------------------------------------------------------------------------------|
B|--------------------------------------------------------2-2-2-2-2-2-----------------|
G|--------------------------------------------------------2-2-2-2-2-2-----------------|
D|------------4---666666----4---444444----4---9-9-9-9-9-9-0-0-0-0-0-0-6-6-6-6-6-6-4~--|
A|--666666-467-76-444444-467-76-222222-467-76-7-7-7-7-7-7-------------4-4-4-4-4-4-2~--|
E|--444444----------------------------------------------------------------------------|
    xxxxxx
Composição de Misfits
Colaboração e revisão:
  • Arthur Pereira
667 exibições
    • ½ Tom
    • A
    • Bb
    • B
    • C
    • Db
    • D
    • Eb
    • E
    • F
    • F#
    • G
    • Ab
  • Adicionar à lista

    0 comentários

    Ver todos os comentários

    Conseguiu tocar?

    1 Tocaram 0 Ainda não

    Grave um vídeo tocando Mars Attacks e nos envie!

    00:00 / 00:00
    outros vídeos desta música
    repetir qualidade Automático
    Outros vídeos desta música
    00:00 / 00:00
    Automático

    Cifra Club Pro

    Aproveite o Cifra Club com benefícios exclusivos e sem anúncios
    Cifra Club Pro
    Aproveite o Cifra Club com benefícios exclusivos e sem anúncios
    OK