Cifra Club

Scream

Misfits

Cifra: Principal (violão e guitarra)
Selo Cifra Club: esta cifra foi revisada para atender aos critérios oficiais da nossa Equipe de Qualidade.
tom: Db
[Begining Fill-in]
E|-----|
B|-----|
G|--4--|
D|--4--|
A|--2--|
E|-----|

[Intro]
(Small Feedback)
E|---------------------------------------|
B|---------------------------------------|
G|---------------------------------------|
D|---------------------------------------|
A|2/9--4-5--2-9-4-5~--2/9--4-5--2--9--5-4|
E|---------------------------------------|
                   
E|----------------------------------------|
B|----------------------------------------|
G|4--2-----4--7-----4--2-7~--4--2---------|
D|4--2-5~--4--7-5~--4--2-7---4--2-5~------|
A|2--0-5---2--5-5---2--0-5---2--0-5-----9/|
E|-----3--------3-----------------3-------|

[Verses]
(Part 1 of verse)
E|-------------------------------------------|
B|-------------------------------------------|
G|22222222222-4444444444-------7-22222222222-|
Db|22222222222-4444444444-5-5-5-7-22222222222-|
Ab|00000000000-2222222222-5-5-5-5-00000000000-|
Eb|-----------------------3-3-3---------------|

(Part 2 of verse)
E|---------------------------------------------|
B|---------------------------------------------|
G|44444444444-------------7-7-7-7-2222222222222|
Db|44444444444-55555555555-7-7-7-7-2222222222222|
Ab|22222222222-55555555555-5-5-5-5-0000000000000|
Eb|------------33333333333----------------------|

[Chorus]
E|-------------------------|
B|-------------------------|
G|44444-222222-------------|
Db|44444-222222-555555555555|
Ab|22222-000000-555555555555|
Eb|-------------333333333333|

[Fill-In 2]
E|-------------|
B|-------------|
Gb|2222222222222|
Db|2222222222222|
Ab|0000000000000|
Eb|-------------|
pm .............

[Other Riff 1]
E|---------------------------------------------|
B|---------------------------------------------|
G|44444444444-------------7-7-7-7-2222222222222|
Db|44444444444-55555555555-7-7-7-7-2222222222222|
Ab|22222222222-55555555555-5-5-5-5-0000000000000|
Eb|------------33333333333----------------------|

[Other Riff 2]
E|---------------------------------------|
B|---------------------------------------|
G|4-4-4-4-4-4-4-4-4-4-4-4-4-4-4-4--------|
Db|4-4-4-4-4-4-4-4-4-4-4-4-4-4-4-4-555-444|
Ab|2-0-2-0-2-2-0-2-0-2-2-0-2-0-2-2-555-444|
Eb|--------------------------------333-222|

[End On]
E|-----|
B|-----|
G|--4--|
D|--4--|
A|--2--|
E|-----|



************************************

| b  Bend
| /  Slide up
| ~  Vibrato
Outros vídeos desta música
    51 exibições
      • ½ Tom
      • A
      • Bb
      • B
      • C
      • Db
      • D
      • Eb
      • E
      • F
      • F#
      • G
      • Ab
    • Adicionar à lista

    Afinação da cifra

    Afinador online

      0 comentários

      Ver todos os comentários

      Entre para o Cifra Club PRO

      Tenha acesso a benefícios exclusivos no App e no Site

      • Chega de anúncios

      • Badges exclusivas

      • Mais recursos no app do Afinador

      • Atendimento Prioritário

      • Aumente seu limite de lista

      • Ajude a produzir mais conteúdo

      Cifra Club Pro

      Aproveite o Cifra Club com benefícios exclusivos e sem anúncios
      Cifra Club Pro
      Aproveite o Cifra Club com benefícios exclusivos e sem anúncios
      Ops (: Contenido disponible sólo en portugués.
      OK