Cifra Club

Walking In La

Missing Persons

Cifra: Principal (violão e guitarra)
Selo Cifra Club: esta cifra foi revisada para atender aos critérios oficiais da nossa Equipe de Qualidade.
tom: Gm
G G - -
C C - C
F F - -
Bb - D -

G G - -
C C - C
F F - F
Bb - D -


E|----------------------------------|-----------------------------------|
B|----------------------------------|-----------------------------------|
G|-----8---7-5----3-2---3-5-7-----7-|-----8---7-5--3-2---3-4-5---5-7----|
D|---8---8------------3---------5---|---8---8----------3-------5--------|
A|-6--------------------------5-----|-6---------------------------------|
E|----------------------------------|-----------------------------------|


[Verse]
Look ahead as we pass, try and focus on it
I won't be fooled by a cheap cinematic trick
It must have been just a cardboard cut out of a man
Top-forty cast off from a record stand

[Chorus]
G G         C C
Walkin' in L. A.
F F           Bb  D
Walkin' in L. A., nobody walks in L. A.
G G         C C
Walkin' in L. A.
F F           Bb  D
Walkin' in L. A., nobody walks in L. A.

[Verse]
I don't know could've been a lame jogger maybe
Or someone just about to do the freeway strangler baby
Shopping cart pusher or maybe someone groovie
One thing's for sure, he isn't starring in the movies.

[Chorus]
G G         C C
'Cause he's walkin' in L. A.
F F           Bb  D
Walkin' in L. A., nobody walks in L. A.
G G         C C
Walkin' in L. A.
F F           Bb  D
Walkin' in L. A., nobody walks in L. A.

[Break]

G  F F     G  F Eb Eb
G  F F     G  F Eb Eb
Walkin' walkin' walkin' walkin' walkin'
G  F F     G  F Eb Eb
Nobody's walkin' walkin' walkin' walkin' walkin'
G  F F     G  F Eb Eb
Nobody's walkin' walkin' walkin' walkin' walkin'
G  F F     G  F Eb Eb
Nobody's walkin' walkin' walkin' walkin' walkin'

G  F F     G  F Eb Eb
You won't see a cop walkin' on the beat
G  F F     G  F Eb Eb
Nobody's walkin' walkin' walkin' walkin' walkin'
G  F F     G  F Eb Eb
You only see 'em drivin' cars out on the street
G  F F     G  F Eb Eb
Nobody's walkin' walkin' walkin' walkin' walkin'
G  F F     G  F Eb Eb
You won't see a kid walkin' home from school
G  F F     G  F Eb Eb
Nobody's walkin' walkin' walkin' walkin' walkin'
G  F F     G  F Eb Eb
Their mothers pick 'em up in a car pool
G  F F     G  F Eb Eb
Nobody's walkin' walkin' walkin' walkin'
C C C C D D D D   

[reprise intro]

G G - -
C C - C
F F - F
Bb - D -


G G - -
C C - C
F F - F
Bb - D -



[Guitar solo (partial)]


E|------------------|---------8-6-8----|--------------------|
B|------------------|-------8----------|--------------------|
G|--7b8-5-3-2-3-2-0-|---7/8------------|--------------------|
D|------------------|------------------|--------------------|
A|------------------|------------------|--------------------|
E|------------------|------------------|--------------------|


[Chorus]
Walkin' in L. A.
Walkin' in L. A., nobody walks in L. A.
Walkin' in L. A.
Walkin' in L. A., nobody walks in L. A.

[Verse]
Could it be that the smog's playing tricks on my eyes
Or is it a rollerskater in some kind of headphone disguise
Maybe somebody who just ran out of gas,
Making his way back to the pumps the best way he can.

[Chorus]
G G         C C
Walkin' in L. A.
F F           Bb  D
Walkin' in L. A., nobody walks in L. A.
G G         C C
Walkin' in L. A.
F F           Bb  D
Walkin' in L. A., nobody walks in L. A.
G G         C C
Walkin' in L. A.
F F           Bb  D
Walkin' in L. A., nobody walks in L. A.
G G         C C
Walkin' in L. A.
F F           Bb  D
Walkin' in L. A., only a nobody walks in L. A.

[Outro]

E|---------------------|---------------------------|
B|---------------------|---------------------------|
G|-----3-2-0-----3-2-0-|-----3-2-0-----3-2-0-------|
D|-0-0-------1-1-------|-2-2-------1-1-------------|
A|---------------------|---------------------------|
E|---------------------|---------------------------|


Nobody's walkin' walkin' walkin' walkin' walkin'
Nobody's walkin' walkin' walkin' walkin' walkin'
Nobody's walkin' walkin' walkin' walkin' walkin'
Nobody's walkin' walkin' walkin' walkin' walkin'
Nobody's walkin' walkin' walkin' walkin' walkin'
Nobody's walkin' walkin' walkin' walkin' walkin'
Nobody walks in L. A
G
Outros vídeos desta música
    33 exibições
      • ½ Tom
      • Am
      • Bbm
      • Bm
      • Cm
      • C#m
      • Dm
      • Ebm
      • Em
      • Fm
      • F#m
      • Gm
      • G#m
    • Adicionar à lista

    Afinação da cifra

    Afinador online

      0 comentários

      Ver todos os comentários

      Entre para o Cifra Club PRO

      Tenha acesso a benefícios exclusivos no App e no Site

      • Chega de anúncios

      • Badges exclusivas

      • Mais recursos no app do Afinador

      • Atendimento Prioritário

      • Aumente seu limite de lista

      • Ajude a produzir mais conteúdo

      Cifra Club Pro

      Aproveite o Cifra Club com benefícios exclusivos e sem anúncios
      Cifra Club Pro
      Aproveite o Cifra Club com benefícios exclusivos e sem anúncios
      Ops (: Contenido disponible sólo en portugués.
      OK