Cifra Club

Change

Miwa

Cifra: Principal (violão e guitarra)
Selo Cifra Club: esta cifra foi revisada para atender aos critérios oficiais da nossa Equipe de Qualidade.
tom: D
Parte 1:
Em                 C
CHANGE! nabikanai nagasarenai yo
 G                    D
ima kanjiru koto ni sunao de itai no
Em                 C
CHANGE! nando demo umarekawaru no
  G                   D         C9
kanashimi mo dakishimete hashiridasu yo
   C#m       A           E           B
E|----------4-4-----4-----4-----4--------------4------------|
B|--------------7-5---7-5---7-5---7-5-7--7-5-7---7-5--------|
G|--6--6-4-6------------------------------------------------| (2x)
D|----------------------------------------------------------|
A|----------------------------------------------------------|
E|----------------------------------------------------------|

Parte 2:
C#m            A
  Kanashii uragiri ni atte
  E                  B
torawarenai watashi ga koko ni iru no
C#m           A                E                 B
  tarinai tsukinai nani datte Motto hizumasete yo

Parte 3:
C#m               A
  pataan kashita konna sekai ja
E                     B
 jibun ga dare na no ka wakaranaku naru
C#m          A              E         B        A (Riff 1)
  waku ni hamaritakunai wa    Kimetsuke naide yo
Riff 1:
      A          E         C#m
E|-----------------------------|
B|-----------------------------|
G|---------4-------------------|
D|-----2-4-----4--2-4-1--6-----|
A|--4--------------------4-----|
E|-----------------------------|

Pré-Refrão:
  C#m               B
michinakimichi Wo yuku no A
  A            E            F#m           Ab7
soko ni itatte matteitatte nani mo hajimaranai

Refrão:
Em                 C
CHANGE! nabikanai nagasarenai yo
 G                    D
ima kanjiru koto ni sunao de itai no
B      C          G               B7
  dareka no omoidoori ni wa sasenai wa
Em                 C
CHANGE! nando demo umarekawaru no
  G                    D         C       D
kanashimi mo dakishimete hashiridasu yo
 Em                              C    D
anata no moto ni wa mo kaerenai wa
   C9
watashi wa watashi rashiku I wanna chAngE!
   C#m       A           E           B
E|----------4-4-----4-----4-----4--------------4------------|
B|--------------7-5---7-5---7-5---7-5-7--7-5-7---7-5--------|
G|--6-6-4-6-------------------------------------------------|
D|----------------------------------------------------------|
A|----------------------------------------------------------|
E|----------------------------------------------------------|

C#m            A
  Nande sonna tame ratte ?
E                 B
Ita sarenai anata wa doko ni iru no ?
C#m           A                E           B
 Kienai sabinai furikitte motto haurasete yo
C#m               A                 C#m         A         E
Kawatta kara kizuku sekai wa ima no watashi wo utsushite kureru
B
desho ?
 A            E            F#m           Ab7
Anata no omou mirai wa nani ga tsutteiru no ?
Riff 2:
      A          E         C#m
E|-----------------------------|
B|-----------------------------|
G|---------4-------------------|
D|-----2-4-----4--2-4-1--6-----|
A|--4--------------------4-----|
E|-----------------------------|

Pré-Refrão:
 C#m           B
Ainaki asu e yuku no
 A            E             F#m            Ab7
Kikitomenaide koishikutatte atashi wa susumitai

Refrão:
Em                       C
CHANGE! tomaranai furimukanai yo
G             D
Itsudatte shinjitsumotomete itaino
B       C           G            B7
  Namida mo itoushiku omoeru ki ga suru
Em                C
CHANGE! wasurenai nakushitakunai
   G                  D         C        D
Yorokobi mo dakishimete hashiridasu yo
 Em                                  C   D
Anata no moto kara hanareteshimatte mo
  C9
Watashi wa atashi rashiku I wanna chAngE!

(Solo 2)

 C#m           B          A             E
Atashi ga kawatta saki ni anata ga iru nara
A        E               F#m           Ab7
Anata ga kawatta saki ni atashi ga iru nara
Em              Em         F#m         Ab7
Change oh oh change oh ohh hashiridasu yo

Refrão:
Em                 C
CHANGE! nabikanai nagasarenai yo
G              D
Ima kanjiru koto ni sunao de itai no
B       C           G          B7
Dareka no omoidoori ni wa sasenai wa
Em                 C
CHANGE! nando demo umarekawaru no
 G                    D         C       D
Kanashimi mo dakishimete hashiridasu yo
B               C        G            B7
Futari de onaji keshiki ga mireru nara
Em                               C   D
Anata no moto ni itsuka kaeritai wa
C9
Watashi wa atashi rashiku I wanna CHANGE!
   C#m       A           E           B
E|----------4-4-----4-----4-----4--------------4------------|
B|--------------7-5---7-5~--7-5~--7-5-7--7-5-7~--7-5--------|
G|--6--6-4-6------------------------------------------------|  (2x)
D|----------------------------------------------------------|
A|----------------------------------------------------------|
E|----------------------------------------------------------|
Outros vídeos desta música
    10.597 exibições
      • ½ Tom
      • A
      • Bb
      • B
      • C
      • Db
      • D
      • Eb
      • E
      • F
      • F#
      • G
      • Ab
    • Adicionar à lista

    Afinação da cifra

    Afinador online

      0 comentários

      Ver todos os comentários

      Entre para o Cifra Club PRO

      Tenha acesso a benefícios exclusivos no App e no Site

      • Chega de anúncios

      • Badges exclusivas

      • Mais recursos no app do Afinador

      • Atendimento Prioritário

      • Aumente seu limite de lista

      • Ajude a produzir mais conteúdo

      Cifra Club Pro

      Aproveite o Cifra Club com benefícios exclusivos e sem anúncios
      Cifra Club Pro
      Aproveite o Cifra Club com benefícios exclusivos e sem anúncios
      OK