Cifra Club

Mammamia

Måneskin

Cifra: Principal (violão e guitarra)
Selo Cifra Club: esta cifra foi revisada para atender aos critérios oficiais da nossa Equipe de Qualidade.
tom: E
[Intro] (baixo) 4x

[Verse 2]
E|-----------------|
B|-----------------|
G|-----------------|
D|-----------------|
A|--6-6/7-6-7-6-7--|
E|-4-4-------------|
                          2X
E|-----------------|
B|-----------------|
G|-----------------|
D|-6-6-6/7-6-6-6-6-|
A|--6-6------------|
E|-----------------|

A|-6-6-6-6-7-(2x)---7--7--7--7--7--7| (baixo)
E|----------------------------------|

[Refrão]
(D#m  E) 4x

[Verse]
E|-----------------|
B|-----------------|
G|-----------------|
D|-----------------|
A|--6-6/7-6-7-6-7--|
E|-4-4-------------|
                          2X
E|-----------------|
B|-----------------|
G|-----------------|
D|-6-6-6/7-6-6-6-6-|
A|--6-6------------|
E|-----------------|

(Baixo) 2X

[Verse 2]
E|-----------------|
B|-----------------|
G|-----------------|
D|-----------------|
A|--6-6/7-6-7-6-7--|
E|-4-4-------------|
                          2X
E|-----------------|
B|-----------------|
G|-----------------|
D|-6-6-6/7-6-6-6-6-|
A|--6-6------------|
E|-----------------|

A|-6-6-6-6-7-(2x)---7--7--7--7--7--7| (baixo)
E|----------------------------------|

[Refrão]
(D#m  E) 4x

[Outro) - Baixo]
A|-4-4---4-4-4---4-4-4---4-4-4---4-4-4---4-4-4---4-4-4---4-4-4--|
E|--------------------------------------------------------------|

A|-4-4-4--4-4-4--4-4-4--4-4-4--4-4-4--4-4-4--4-4-4--4-4-4| (4x)
E|-------------------------------------------------------|
     (Guitarra entra na 3ª vez com D#m acompanhando o baixo)

[Refrão]
(D#m  E) 4x

Refrão com solo
(D#m  E) 4x

[Solo]
E|------------------------------------|
B|-9--9--9--9--10-10-10-10-10-10/12/10|
G|------------------------------------|
D|------------------------------------|
A|------------------------------------|
E|------------------------------------|
                                          2X
E|-----------------------------|
B|-9--9--9--9------------------|
G|-----------9-9-9-9-9-9/11/9--|
D|-----------------------------|
A|-----------------------------|
E|-----------------------------|
     (Solo acompanha com uma parte à cada repetição de refrão)
Outros vídeos desta música
    4.268 exibições
      • ½ Tom
      • A
      • Bb
      • B
      • C
      • Db
      • D
      • Eb
      • E
      • F
      • F#
      • G
      • Ab
    • Adicionar à lista

    Afinação da cifra

    Afinador online

      0 comentários

      Ver todos os comentários

      Conseguiu tocar?

      2Tocaram0Ainda não

      Grave um vídeo tocando Mammamia e nos envie!

      Toque também

      1. Imagem do artista Barbara PraviVoilà Barbara Pravi
      2. Imagem do artista MadconDon't Worry Madcon
      3. Imagem do artista FedezLa Dolce Vita Fedez
      4. Imagem do artista Blind ChannelWe Are No Saints Blind Channel

      Entre para o Cifra Club PRO

      Tenha acesso a benefícios exclusivos no App e no Site

      • Chega de anúncios

      • Badges exclusivas

      • Mais recursos no app do Afinador

      • Atendimento Prioritário

      • Aumente seu limite de lista

      • Ajude a produzir mais conteúdo

      Cifra Club Pro

      Aproveite o Cifra Club com benefícios exclusivos e sem anúncios
      Cifra Club Pro
      Aproveite o Cifra Club com benefícios exclusivos e sem anúncios
      Ops (: Contenido disponible sólo en portugués.
      OK