Cifra Club

Supermodel

Måneskin

Cifra: Principal (violão e guitarra)
Selo Cifra Club: esta cifra foi revisada para atender aos critérios oficiais da nossa Equipe de Qualidade.
tom: Am
[Intro] Am  C  G  Dm
        Am  C  G  Dm

[Primeira Parte]

Am        C           G
Alone at parties in a deadly
      Dm
Silhouette
Am             C
She loves the cocaine, but
  G                     Dm
Cocaine don't love her back
Am             C             G
When she's upset, she talks
              Dm
Tomorrow and takes deep breaths
Am            C         G         Dm
She's a 90's supermodel, uh-uh-uh
Am           C
Way back in high school
     G
When she was a good
      Dm
Christian
Am            C               G
I used to know her, but she's
                 Dm
Got a new best friend
Am                      C
A drag queen named The
G
Virgin Mary takes
Dm
Confessions
Am                   C
She's a 90's supermodel

( G  Dm )

                 Am    C
Yeah, she's a master, my
G           Dm
Compliments
              Am          C
If you wanna love her, just

Deal with that
      G
She'll never love you, more
                   Dm
Than money and cigarettes
Am      C             G    Dm
Every night's a heartbreak

[Refrão]

Am           C                 G
Hey, don't think about it, hey
             Dm
Just let it go
Am           C              G
'Cause her boyfriend is the
         Dm
Rock'n'roll (eh)
Am             C            G
Savor every moment till she
       Dm
Has to go
Am         C                G
'Cause her boyfriend is the

Rock'n'roll

[Tab - Solo]

E|--8p7-8p7-8p7-8p7----8p7-8p7-8p7-8p7--------------------|
B|-----------------9--------------------10----------------|
G|--------------------------------------------------------|
D|--------------------------------------------------------|
A|--------------------------------------------------------|
E|--------------------------------------------------------|

E|--8p7-8p7-8p7-8p7----8p7-8p7-8p7-8p7--------------------|
B|---------------------------------------10---------------|
G|--------------------------------------------------------|
D|--------------------------------------------------------|
A|--------------------------------------------------------|
E|--------------------------------------------------------|

[Segunda Parte]

Alone at parties

She's working around the clock
Am               C
When you're not looking
        G                   Dm
She's stealing your Basquiat
Am                 C
Low waisted pants on
          G                Dm
Onlyfans, I'd pay for that
Am                     C
She's a 90's supermodel

( G  Dm )

                Am        C
Yeah, she's a monster, my
   G                 Dm
 Compliments
             Am              C
If you wanna love her, just
  G               Dm
Deal with that
           Am                  C
She'll never love you, you just
  G                        Dm
Look a bit like her dad
Am        C         G     Dm
Every night's a heartbreak

[Refrão]

Am         C                G
Hey, don't think about it, hey
         Dm
Just let it go
Am       C               G
'Cause her boyfriend is the
       Dm
Rock'n'roll (eh)
Am        C               G
Savor every moment till she
       Dm
Has to go
Am        C               G
'Cause her boyfriend is the

Rock'n'roll

[Tab - Solo]

E|--8p7-8p7-8p7-8p7----8p7-8p7-8p7-8p7--------------------|
B|-----------------9--------------------10----------------|
G|--------------------------------------------------------|
D|--------------------------------------------------------|
A|--------------------------------------------------------|
E|--------------------------------------------------------|

E|--8p7-8p7-8p7-8p7----8p7-8p7-8p7-8p7--------------------|
B|---------------------------------------10---------------|
G|--------------------------------------------------------|
D|--------------------------------------------------------|
A|--------------------------------------------------------|
E|--------------------------------------------------------|

Am      C     G  Dm
   Eh, huh-uh
Am       C                 G         Dm
   She's a 90's supermodel, uh-uh-uh
Am       C                 G         Dm  Am
   She's a 90's supermodel, uh-uh-uh
Outros vídeos desta música
    11.366 exibições
      • ½ Tom
      • Am
      • Bbm
      • Bm
      • Cm
      • C#m
      • Dm
      • Ebm
      • Em
      • Fm
      • F#m
      • Gm
      • G#m
    • Adicionar à lista

    Afinação da cifra

    Afinador online

      0 comentários

      Ver todos os comentários

      Conseguiu tocar?

      4Tocaram0Ainda não

      Grave um vídeo tocando Supermodel e nos envie!

      Toque também

      1. Imagem do artista Barbara PraviVoilà Barbara Pravi
      2. Imagem do artista MadconDon't Worry Madcon
      3. Imagem do artista Achille LauroIo E Te Achille Lauro
      4. Imagem do artista Blind ChannelDark Side Blind Channel

      Entre para o Cifra Club PRO

      Tenha acesso a benefícios exclusivos no App e no Site

      • Chega de anúncios

      • Badges exclusivas

      • Mais recursos no app do Afinador

      • Atendimento Prioritário

      • Aumente seu limite de lista

      • Ajude a produzir mais conteúdo

      Cifra Club Pro

      Aproveite o Cifra Club com benefícios exclusivos e sem anúncios
      Cifra Club Pro
      Aproveite o Cifra Club com benefícios exclusivos e sem anúncios
      Ops (: Contenido disponible sólo en portugués.
      OK