Cifra Club

Torna a Casa

Måneskin

Cifra: Principal (violão e guitarra)
tom: C#m
[Intro] C#m  C#m  E  B

[Parte 1 de 2]

   C#m
E|------------------------------------------|
B|-----5--------5--------5--------5---------|
G|-------6--------6--------6--------6-------|
D|---6--------6--------6--------6-----------|
A|-4--------4--------4--------4-------------|
E|------------------------------------------|

[Parte 2 de 2]

   E                 B
E|------------------------------------------|
B|-----9--------9---------------------------|
G|-------9--------9------8--------8---------|
D|---9--------9-----------------------------|
A|-7--------7----------9---9----9---9-------|
E|-------------------7--------7-------------|

[Primeira Estrofe]

[Parte 1 de 2]

   C#m               C#m
E|------------------------------------------|
B|-----5--------5--------5--------5---------|
G|-------6--------6--------6--------6-------|
D|---6--------6--------6--------6-----------|
A|-4--------4--------4--------4-------------|
E|------------------------------------------|

[Parte 2 de 2]

   E                 B
E|------------------------------------------|
B|-----9--------9---------------------------|
G|-------9--------9------8--------8---------|
D|---9--------9-----------------------------|
A|-7--------7----------9---9----9---9-------|
E|-------------------7--------7-------------|

C#m
Cammino per la mia città e il vento soffia forte
C#m
Mi son lasciato tutti indietro e il sole all'orizzonte
E
Vedo le case, da lontano, hanno chiuso le porte
B
Ma per fortuna ho la sua mano e le sue guance rosse

[Parte 1 de 2]

   C#m               C#m
E|------------------------------------------|
B|-----5--------5--------5--------5---------|
G|-------6--------6--------6--------6-------|
D|---6--------6--------6--------6-----------|
A|-4--------4--------4--------4-------------|
E|------------------------------------------|

[Parte 2 de 2]

   E                 B
E|------------------------------------------|
B|-----9--------9---------------------------|
G|-------9--------9------8--------8---------|
D|---9--------9-----------------------------|
A|-7--------7----------9---9----9---9-------|
E|-------------------7--------7-------------|

C#m
Lei mi ha raccolto da per terra coperto di spine
C#m
Coi morsi di mille serpenti fermo per le spire
E
Non ha ascoltato quei bastardi e il loro maledire
B
Con uno sguardo mi ha convinto a prendere e partire

[Parte 1 de 2]

   C#m               C#m
E|------------------------------------------|
B|-----5--------5--------5--------5---------|
G|-------6--------6--------6--------6-------|
D|---6--------6--------6--------6-----------|
A|-4--------4--------4--------4-------------|
E|------------------------------------------|

[Parte 2 de 2]

   E                 B
E|------------------------------------------|
B|-----9--------9---------------------------|
G|-------9--------9------8--------8---------|
D|---9--------9-----------------------------|
A|-7--------7----------9---9----9---9-------|
E|-------------------7--------7-------------|

C#m
Che questo è un viaggio che nessuno prima d'ora ha fatto
C#m
Alice, le sue meraviglie e il Cappellaio Matto
E
Cammineremo pe sta strada e non sarà mai stanco
B
Fino a che il tempo porterà  sui tuoi capelli il bianco

[Ponte]

[Parte 1 de 2]

   F#m               F#m
E|------------------------------------------|
B|------------------------------------------|
G|-----2---------2--------2--------2--------|
D|-------4---------4--------4--------4------|
A|---4---------4--------4--------4----------|
E|-2---------2--------2--------2------------|

[Parte 2 de 2]

   G#                 
E|------------------------------------------|
B|------------------------------------------|
G|-----5--------5---------------------------|
D|-------6--------6-------------------------|
A|---6--------6-----------------------------|
E|-4--------4--------4----------------------|

F#m
Che mi è rimasto un foglio in mano e mezza sigaretta
F#m
Restiamo un po' di tempo ancora tanto non c'è fretta
G#
Che c'ho una frase scritta in testa ma non l'ho mai detta;

Perché la vita, senza te, non può essere perfetta

[Refrão]

A                      E
Quindi Marlena torna a casa che il freddo qua si fa sentire
G#                     C#m  D#m     E      F#m
Quindi Marlena torna a casa che non voglio più aspettare
A                      E
Quindi Marlena torna a casa che il freddo qua si fa sentire
G#                     C#m  D#m     E      F#m   C#m
Quindi Marlena torna a casa che ho paura di sparire

[Segunda Estrofe]

C#m
E il cielo piano piano qua diventa trasparente
C#m
Il sole illumina le debolezze della gente
E
Una lacrima salata bagna la mia guancia mentre
B
Lei con la mano mi accarezza in viso dolcemente
C#m
Col sangue sulle mani scalerò tutte le vette
C#m
Voglio arrivare dove l'occhio umano si interrompe
E
Per imparare a perdonare tutte le mie colpe
B
Perché anche gli angeli, a volte, han paura della morte

[Ponte]

F#m
Che mi è rimasto un foglio in mano e mezza sigaretta
F#m
Corriamo via da chi c'ha troppa sete di vendetta
G#
Da questa Terra ferma perché ormai la sento stretta;

Ieri ero quiete perché oggi sarò la tempesta

[Refrão]

A                      E
Quindi Marlena torna a casa che il freddo qua si fa sentire
G#                     C#m  D#m     E      F#m
Quindi Marlena torna a casa che non voglio più aspettare
A                      E
Quindi Marlena torna a casa che il freddo qua si fa sentire
G#                     C#m  D#m     E      F#m   C#m
Quindi Marlena torna a casa che ho paura di sparire

[Terceira Estrofe]

C#m
Prima di te ero solo un pazzo ora lascia che ti racconti
C#m
Avevo una giacca sgualcita e portavo tagli sui polsi
E
Oggi mi sento benedetto e non trovo niente da aggiungere
D#m
Questa città si affaccia quando ci vedrà giungere
C#m
Ero in bilico tra l'essere vittima, essere giudice
C#m
Era un brivido che porta la luce dentro le tenebre
E
E ti libera da queste catene splendenti, lucide
D#m
Ed il dubbio o no, se fossero morti oppure rinascite

[Refrão]

A                      E
Quindi Marlena torna a casa che il freddo qua si fa sentire
G#                     C#m  D#m     E      F#m
Quindi Marlena torna a casa che non voglio più aspettare
A                      E
Quindi Marlena torna a casa che il freddo qua si fa sentire
G#                     C#m  D#m     E      F#m   C#m
Quindi Marlena torna a casa che ho paura di sparire

A                      E
Quindi Marlena torna a casa che il freddo qua si fa sentire
G#                     C#m  D#m     E      F#m   C#m
Quindi Marlena torna a casa che ho paura di sparire
00:00 / 00:00
Outros vídeos desta música
Repetir
Outros vídeos desta música
Composição de Damiano David
Colaboração e revisão:
  • Vitor Araujo
14.916 exibições
    • ½ Tom
    • Am
    • Bbm
    • Bm
    • Cm
    • C#m
    • Dm
    • Ebm
    • Em
    • Fm
    • F#m
    • Gm
    • G#m
  • Adicionar à lista

    0 comentários

    Ver todos os comentários

    Entre para oCifra Club PRO

    Tenha acesso a benefícios exclusivos no App e no Site

    • Chega de anúncios

    • Prioridade de compra em lançamentos

    • Mais recursos no app do Afinador

    • Atendimento Prioritário

    • Descontos nos produtos Cifra Club

    • Ajude a produzir mais conteúdo

    00:00 / 00:00

    Cifra Club Pro

    Aproveite o Cifra Club com benefícios exclusivos e sem anúncios
    Cifra Club Pro
    Aproveite o Cifra Club com benefícios exclusivos e sem anúncios
    OK