Cifra Club

Aprenda

Odio Equivocarme

Moderatto

Cifra: Principal (violão e guitarra)
tom: D
E|---|-------5---|---5-7/10-7-|-10-10-9--10-9-----|-10-10--9-7-5----|
B|---|---5-7---7-|-7----------|-10-10-10------5/7-|-10-10-10--------|
G|-7-|-7---------|------------|---------------5/7-|-------------5/7-|
D|---|-----------|------------|-------------------|-----------------|
A|---|-----------|------------|-------------------|-----------------|
E|---|-----------|------------|-------------------|-----------------|

 D                              F#m
Sé que me vas a matar, es el alcohol el que me hizo llamar,
      Bm                 A          Bm                 A
esta duda no me deja en paz, me contestas y vuelvo a colgar.

 D                                 F#m
Sabes que no te olvidé, como un tatuaje te llevo en la piel,
       Bm                A           Bm               A
es un juego fácil de perder, me obsesiono y me da placer.

 G              A        Bm
No lo puedo evitar y me pasa todo el tiempo
         G            A
que me ahogo en el recuerdo.

            D                     G
Odio equivocarme como lo hice contigo,
          Em                     A                 D    A
odio admitir que si se trata de ti soy un caso perdido.

            D                        G
Odio equivocarme y me merezco un castigo,
             Em                      A                  Bm
quiero aprender porque no pienso volver a pasar por lo mismo.

            G    A                  D
Odio equivocarme   como lo hice contigo.

   D          F#m           Bm
E|---|-------5---|---5-7/10-7-|-10-10--9-7-5-----|
B|---|---5-7---7-|-7----------|-10-10-10---------|
G|-7-|-7---------|------------|--------------5/7-|
D|---|-----------|------------|------------------|
A|---|-----------|------------|------------------|
E|---|-----------|------------|------------------|

 D                                    F#m
Tantos placeres culpables, tantas canciones al desamor,
        Bm                    A       Bm                 A
las norteñas me vuelven a gustar y José José me hace llorar.

 G              A        Bm
No lo puedo evitar y me pasa todo el tiempo
         G            A
que me ahogo en el recuerdo.

            D                     G
Odio equivocarme como lo hice contigo,
          Em                     A                 D    A
odio admitir que si se trata de ti soy un caso perdido.

            D                        G
Odio equivocarme y me merezco un castigo,
             Em                      A                  Bm
quiero aprender porque no pienso volver a pasar por lo mismo.

            G    A                  D
Odio equivocarme   como lo hice contigo.

E|--------------------------|------------------------------|
B|----10--------------------|-10h12--10h12-12-10-----------|
G|-9^----11-9^--7---7-7-----|--------------------11-9------|
D|----------------9-----9-8-|-------------------------12-9-|
A|--------------------------|------------------------------|
E|--------------------------|------------------------------|

E|--------------------------------------------------------|
B|-------12----10-------12----10-------12----10-----------|
G|-9^-11----11----9^-11----11----9^-11----11----9----9----|
D|------------------------------------------------12---12-|
A|--------------------------------------------------------|
E|--------------------------------------------------------|

E|----------------------------------|
B|----------------------7-----------|
G|-----7------------7-9---9-7---7---|
D|-7h9-7-7h9-7-7h9^-----------9---9-|
A|----------------------------------|
E|----------------------------------|

 G              A        Bm
No lo puedo evitar y me pasa todo el tiempo
         G            A   D  A
que me ahogo en el recuerdo.

            D                     G
Odio equivocarme como lo hice contigo,
          Em                     A                 D    A
odio admitir que si se trata de ti soy un caso perdido.

            D                        G
Odio equivocarme y me merezco un castigo,
             Em                      A                  Bm
quiero aprender porque no pienso volver a pasar por lo mismo.

            G    A                  D
Odio equivocarme   como lo hice contigo.
Compositor não encontrado.
1 exibições
    • ½ Tom
    • A
    • Bb
    • B
    • C
    • Db
    • D
    • Eb
    • E
    • F
    • F#
    • G
    • Ab
  • Adicionar à lista

    0 comentários

    Ver todos os comentários

    Conseguiu tocar?

    0 Tocaram 0 Ainda não

    Grave um vídeo tocando Odio Equivocarme e nos envie!

    00:00 / 00:00
    Outros vídeos desta música
    Repetir Qualidade Automático
    Outros vídeos desta música
    00:00 / 00:00
    Automático

    Cifra Club Pro

    Aproveite o Cifra Club com benefícios exclusivos e sem anúncios
    Cifra Club Pro
    Aproveite o Cifra Club com benefícios exclusivos e sem anúncios
    OK