Cifra Club

Aprenda

Custom Concern

Modest Mouse

Cifra: Principal (violão e guitarra)
tom: C
Intro/Verso:

Parte 1
E|----------------------------------------------------------|
B|----------------------------------------------------------|
G|-------0------------------0--------0------------------0---|
D|----------0h2--------0h2--------------0h2--------0h2------|
A|-3--3----------3--3----------3--3----------3--3-----------|
E|----------------------------------------------------------|

Parte 1 - Riff Alternativo
E|----------------------------------------------------------|
B|----------------------------------------------------------|
G|-------0------------------0--------0------------------0---|
D|----------2----------2----------------2----------2--------|
A|-3--3----------3--3----------3--3----------3--3-----------|
E|----------------------------------------------------------|

Parte 2
E|----------------------------------------------------------|
B|----------------------------------------------------------|
G|----------------------------------------------------------|
D|----------------------------------------------------------|
A|-------3--3-3--------3--3-3--------3--3-3--------3--3-3---|
E|-5--5----------5--5----------5--5----------5--5-----------|

Parte 3
E|-------------------------------------------------------------------|
B|-------------------------------------------------------------------|
G|-------------------------------------------------------------------|
D|-------------------------------------------------------------------|
A|---2h3p2---2h3p2---2h3p2---2h3p2---2h3p2---2h3p2---2h3p2---2h3p2---|
E|-3-------3-------3-------3-------3-------3-------3-------3---------|

Parte 4
E|-------------------------------------------------------|
B|-------------------------------------------------------|
G|-------------------------------------------------------|
D|---------------------------------------------0---------|
A|------0h3--3--------0h3--3--------0h3--3--3-----3--2---|
E|-1--1---------1--1----------1--1-----------------------|

Fill 1 - Slide
E|------|
B|------|
G|------|
D|-/7---|
A|------|
E|------|

Fill 2 - Slide
E|--------|
B|--------|
G|--------|
D|--------|
A|--------|
E|-/8--8\-|

Fill 3 - Slide
E|--------|
B|--------|
G|-----12-|
D|-/12----|
A|--------|
E|--------|

Outro:

E|-------------------------------------------------------------------------|
B|-------------------------------------------------------------------------|
G|---------5/7-5--4-5-4----------------------------------------------------|
D|---2-3/5--------------5-3--2-3-2--------------5/7-5--4-5-4---------------|
A|-3-------------------------------3------2-3/5--------------5-3--2-3-2----|
E|--------------------------------------3-------------------------------3--|

E|----------------------------------------------------------------|
B|----------------------------------------------------------------|
G|----------------------------------------------------------------|
D|---------------------2---3---5----------------------------------|
A|----------2---3--5----------------------0---2--3---2---0--------|
E|--3---5--------------------------1---3--------------------3--1--|

C
The custom concern for the people
Am
Build up the monuments and steeples
   G            F
To wear out our eyes

C
I get up just about noon
   Am
My head sends a message for me
                           G
to reach for my shoes then walk
                                                 F
Gotta go to work, gotta go to work, gotta have a job

C
Goes through the parking lot fields
Am
Didn't see no signs that they will yield
         G
And then thought, this'll never end
                                 F
This'll never end, this'll never stop

C
Message read on the bathroom wall
       Am
Says, "I don't feel at all like I fall."
          G
And we're losing all touch, losing all touch
           F
Building a desert
Composição de Isaac Brock / Modest Mouse
Colaboração e revisão:
  • Felippe Silva
321 exibições
    • ½ Tom
    • A
    • Bb
    • B
    • C
    • Db
    • D
    • Eb
    • E
    • F
    • F#
    • G
    • Ab
  • Adicionar à lista

    0 comentários

    Ver todos os comentários

    Conseguiu tocar?

    0 Tocaram 0 Ainda não

    Grave um vídeo tocando Custom Concern e nos envie!

    00:00 / 00:00
    outros vídeos desta música
    repetir qualidade Automático
    Outros vídeos desta música
    00:00 / 00:00
    Automático

    Cifra Club Pro

    Aproveite o Cifra Club com benefícios exclusivos e sem anúncios
    Cifra Club Pro
    Aproveite o Cifra Club com benefícios exclusivos e sem anúncios
    OK