Cifra Club

Manto Estelar

Moenia

Cifra: Principal (violão e guitarra)
tom: Em

INTRO.
    Cadd9           C/B                Em7
E|---------0----------------0----------------0----------------2-------|
B|-----3-----3---3------3-----3---3------3-----3---3------3-----3---0-|
G|---0---0-----0------0---0-----0------0---0-----0------0---0-----0---|
D|--------------------------------------------------------------------|
A|-3----------------2-------------------------------------------------|
E|-----------------------------------0----------------0---------------|
    Cadd9           C/B                Em7
E|---------0----------------0----------------0----------------0-------|
B|-----3-----3---3------3-----3---3------3-----3---3------3-----3---3-|
G|---0---0-----0------0---0-----0------0---0-----0------0---0-----0---|
D|--------------------------------------------------------------------|
A|-3----------------2-------------------------------------------------|
E|-----------------------------------0----------------0---------------|

    Cadd9           C/B                Em7
E|--------0------------0----------------0----------------0-------|
B|----3-----3---3----3---3---3------3-----3---------3------3---3-|
G|--0---0-----0----0-------0------0---0-----0-----0----------0---|
D|---------------------------------------------------------------|
A|-3--------------3--------------2-------------------------------|
E|----------------------------------------------0----------------|
Si mañana me perdiera en         un inmenso     mar

    Cadd9           C/B                Em7
E|----------0------------0----------------0----------------0-------|
B|------3-----3---3----3---3---3------3-----3---------3------3---3-|
G|----0---0-----0----0-------0------0---0-----0-----0----------0---|
D|-----------------------------------------------------------------|
A|---3--------------3--------------2-------------------------------|
E|------------------------------------------------0----------------|
Y la noche me cubriera con        su manto     estelar

   Am7           C                D                       Em7
E|---------0-----------0------------------0-------------------0-------|
B|-----1-----1-------1---1---1--------3-----3---------------3---3---3-|
G|-------------0---0-------0------------------0-----------0-------0---|
D|---2---2-------------------------4----4-----------------------------|
A|-0-------------3-------------3/5------------------------------------|
E|------------------------------------------------------0-------------|
 A donde    volaría             E  última oraci - - - -ón

   Am7           C                 D                       D
E|---------0-----------0------------------0----------------0----------|
B|-----1-----1-------1---1---1--------3-----3----------3-----3--------|
G|-------------0---0-------0------------------0----------------0------|
D|---2---2-------------------------4----4------------4---4-------4----|
A|-0-------------3-------------3/5-----------------5------------------|
E|--------------------------------------------------------------------|
El último     latido         de mi azul cora - - -zón

E|--------0------------0----------------0----------------0-------0|
B|----3-----3---3----3---3---3------3-----3---------3------3---3-|
G|--0---0-----0----0-------0------0---0-----0-----0----------0---|
D|---------------------------------------------------------------|
A|-3--------------3--------------2-------------------------------|
E|----------------------------------------------0----------------|
Si tan sólo un fragmento      pudiera    conservar

E|----------0------------0----------------0----------------0-------|
B|------3-----3---3----3---3---3------3-----3---------3------3---3-|
G|----0---0-----0----0-------0------0---0-----0-----0----------0---|
D|-----------------------------------------------------------------|
A|---3--------------3--------------2-------------------------------|
E|------------------------------------------------0----------------|
Una fina memoria                  para       recordar

E|---------0-----------0------------------0-------------------0-------|
B|-----1-----1-------1---1---1--------3-----3---------------3---3---3-|
G|-------------0---0-------0------------------0-----------0-------0---|
D|---2---2-------------------------4----4-----------------------------|
A|-0-------------3-------------3/5------------------------------------|
E|------------------------------------------------------0-------------|
A quien le llevaría a          mi destino            astral

E|---------0-----------0------------------0----------------0----------|
B|-----1-----1-------1---1---1--------3-----3----------3-----3--------|
G|-------------0---0-------0------------------0----------------0------|
D|---2---2-------------------------4----4------------4---4-------4----|
A|-0-------------3-------------3/5-----------------5------------------|
E|--------------------------------------------------------------------|
Hermosa    compañía         para la eternidad

           Am7           C             Em          Dsus2/F#
No sería a ti no sería a ti esta vez ya no sería a ti
           Am7              C             Em          Dsus2/F#
No supiste dar lo que yo te di no supiste ver lo que hay en mi
           Am7           C             Em          Dsus2/F#
No sería a ti no sería a ti esta vez ya no sería así
           Am7              C             Em          Dsus2/F#
No supiste dar lo que yo te di no supiste ver lo que hay en mi

E|---------0-----------------0---------------0----------------0-------|
B|-----1-----1-----------1-----1---1------3----3---3------3----3---3--|
G|-------------0-----------------0------0---0----0---------------0----|
D|---2---2-------------2---2----------------------------4---4---------|
A|-0--------------0--3--------------------------------5---------------|
E|-------------------------------------0------------------------------|
   No                                  no sería a     ti ya no

E|---------0-----------------0---------------0------------3-----------|
B|-----1-----1-----------1-----1---1------3----3---3------------------|
G|-------------0-----------------0------0---0----0--------------------|
D|---2---2-------------2---2----------------------------2-------------|
A|-0--------------0--3------------------------------------------------|
E|-------------------------------------0--------------0---------------|
   No                                  no sería      así

            E A D G B E
00:00 / 00:00
Outros vídeos desta música
Repetir
Outros vídeos desta música
Composição de Alfonso Pichardo
38 exibições
    • ½ Tom
    • Am
    • Bbm
    • Bm
    • Cm
    • C#m
    • Dm
    • Ebm
    • Em
    • Fm
    • F#m
    • Gm
    • G#m
  • Adicionar à lista

    0 comentários

    Ver todos os comentários

    Conseguiu tocar?

    0 Tocaram 0 Ainda não

    Grave um vídeo tocando Manto Estelar e nos envie!

    00:00 / 00:00

    Cifra Club Pro

    Aproveite o Cifra Club com benefícios exclusivos e sem anúncios
    Cifra Club Pro
    Aproveite o Cifra Club com benefícios exclusivos e sem anúncios
    OK