Cifra Club

Me Equivoqué

Moenia

Cifra: Principal (violão e guitarra)
tom: Bm
intro
E|------------------------------|
B|------------------------------|
G|------------------------------|
D|------------------------------|
A|---6----5-6----5/6/5----------|
E|---------------------6--------| (x 4)


G# Gm (x 3)
G# A#


riff
E|-----------------|
B|-----------------|
G|-----------------|
D|-----1--3--------|
A|--1--------------|
E|-----------------|

(Alfonso Pichardo)

G#        Gm                G#           Gm
No se si entiendo el mensaje ke me han kerido decir
G#       Gm            G#         A#
sera ke por primera vez me esta tokando vivir

-coro-
G#        Gm
yo no, no lo pedi
G#        Gm
(yo nunka lo pedi)
G#         Gm
no yo no, no lo buske
G#        A#
(no lo buske)

G# Gm (x 3) G# A#
Y todo lo planeado, lo ke perfeccione
arroja un resultado, me equivoke
y todo lo planeado, eso ke kalkule
tan solo ha demostrado ke, me equivoque

A donde va este kamino
ya no pretendo saber
lo ke si puedo adivinar
es ke no voy a volver

-coro-
yo no,           (Pichardo & Dennise Guerrero)
no lo pedi       [Dennise]
yo nunka lo pedi (Pichardo & Dennise)
no yo no,
no lo buske      [Dennise]
no, lo buske     (Pichardo & Dennise)

(Pichardo)
Y todo lo planeado, lo ke perfeccione
arroja un resultado, me equivoke
me equivoke (Dennise)
(Pichardo)
y todo lo planeado, eso ke kalkule
tan solo ha demostrado ke, me equivoque
me equivoke (Dennise)

A donde va este kamino [Dennise]
yo no nunka lo pedi    [Pichardo]
ya no pretendo saber   [Dennise]
me equivoke (Pichardo)
me equivoke (Dennise)

(Pichardo)
no es mi kulpa, ke pierda la fe
todo lo hice, y no salio bien
me ekivoke (Dennise)

riff final
E|------------------------------------------------|
B|------------------------------------------------|
G|------------------------------------------------|
D|---------------------------------------------5--|
A|---6----5-6----5/6/5------6----5-6----5/6/5-----|
E|---------------------6--------------------------|

E|------------------------------|
B|------------------------------|
G|------------------------------|
D|------------------------------|
A|---6----5-6----5/6/5-----6----|
E|---------------------6------6-|

(the end)


2ª part /////////////////////////////////////////////////////////
/////////////////////////////////////////////////////////////////

los acordes bajan medio tono
y son mas faciles de tokar
con tu instrumento afinado a tono natural

intro
E|------------------------------|
B|------------------------------|
G|------------------------------|
D|------------------------------|
A|---5----4-5----4/5/4----------|
E|---------------------5--------| (x 4)


G F#m (x 3)
G A


riff
E|-----------------|
B|-----------------|
G|-----------------|
D|-----0--2--------|
A|--0--------------|
E|-----------------|

(Alfonso Pichardo)

G        F#m               G           F#m
No se si entiendo el mensaje ke me han kerido decir
G        F#m           G         A
sera ke por primera vez me esta tokando vivir

-coro-
G         F#m
yo no, no lo pedi
G        F#m
(yo nunka lo pedi)
G          F#m
no yo no, no lo buske
G        A
(no lo buske)

G  F#m (x 3) G  A
Y todo lo planeado, lo ke perfeccione
arroja un resultado, me equivoke
y todo lo planeado, eso ke kalkule
tan solo ha demostrado ke, me equivoque

A donde va este kamino
ya no pretendo saber
lo ke si puedo adivinar
es ke no voy a volver

-coro-
yo no,           (Pichardo & Dennise Guerrero)
no lo pedi       [Dennise]
yo nunka lo pedi (Pichardo & Dennise)
no yo no,
no lo buske      [Dennise]
no, lo buske     (Pichardo & Dennise)

(Pichardo)
Y todo lo planeado, lo ke perfeccione
arroja un resultado, me equivoke
me equivoke (Dennise)
(Pichardo)
y todo lo planeado, eso ke kalkule
tan solo ha demostrado ke, me equivoque
me equivoke (Dennise)

A donde va este kamino [Dennise]
yo no nunka lo pedi    [Pichardo]
ya no pretendo saber   [Dennise]
me equivoke (Pichardo)
me equivoke (Dennise)

(Pichardo)
no es mi kulpa, ke pierda la fe
todo lo hice, y no salio bien
me ekivoke (Dennise)

riff final
E|------------------------------------------------|
B|------------------------------------------------|
G|------------------------------------------------|
D|---------------------------------------------4--|
A|---5----4-5----4/5/4------5----4-5----4/5/4-----|
E|---------------------5--------------------------|

E|------------------------------|
B|------------------------------|
G|------------------------------|
D|------------------------------|
A|---5----4-5----4/5/4-----5----|
E|---------------------5------5-|
00:00 / 00:00
Outros vídeos desta música
Repetir
Outros vídeos desta música
Composição de Alfonso Pichardo
1 exibições
    • ½ Tom
    • Am
    • Bbm
    • Bm
    • Cm
    • C#m
    • Dm
    • Ebm
    • Em
    • Fm
    • F#m
    • Gm
    • G#m
  • Adicionar à lista

    0 comentários

    Ver todos os comentários

    Conseguiu tocar?

    0 Tocaram 0 Ainda não

    Grave um vídeo tocando Me Equivoqué e nos envie!

    00:00 / 00:00

    Cifra Club Pro

    Aproveite o Cifra Club com benefícios exclusivos e sem anúncios
    Cifra Club Pro
    Aproveite o Cifra Club com benefícios exclusivos e sem anúncios
    OK