Cifra Club

Morir tres veces

Moenia

Cifra: Principal (violão e guitarra)
tom: Dm
E|-----------------1------1--------------------|
B|-3--------1------1------3----------------------|
G|-3--------0------2------2----------------------|
D|-3--------2------3------0----------------------|
A|-1--------3------3------------------------|
E|-----------------1---------------------|

Intro
(Tal vez suene diferente pero la canción es con un sintetizador o teclado
pero les recomiendo que lo toquen puenteando las cuerdas)
E|--------------------------------------------------|
B|--------------------------------------------------|
G|--------3--------3-----3--------5--------5-----5--|
D|--------------------------------------------------|
A|--1--1-----1--1-----1-----3--3-----3--3-----3-----|
E|--------------------------------------------------|

E|--------------------------------------------------|
B|--------------------------------------------------|
G|--------------------------------------------------|
D|--------3--------3-----3--------3--------3-----3--|
A|--------------------------------------------------|
E|--1--1-----1--1-----1-----1--1-----1--1-----1-----|


Bb                        C 
Que ya no quieres ni una noche más,
F 
que esta novela ya llegó al final,
Bb                       C 
ahora que no hay nada que esconder
F 
se te ha ocurrido no quererme ver


Bb                          C 
Que ya ni al caso otra oportunidad,
F 
que a ti volver no se te da,
Bb                   C 
ahora que te has clavado en mí
F 
ahora que sólo quiero ir por ti


    Bb            C 
Me dices que ya no,
      F 
que se me pasará,
      Bb           C 
que lo que te hice yo
      F 
fue más que lastimar


              Bb       C              Dm 
Y hoy te dejo con las tardes que te robe
          F       Bb     C            Dm     F 
con tu cuerpo atrapándome para dejarme ir
         Bb       C             Dm 
te dejo con ese cansancio que viene de
          F             Bb  C       Dm  F 
morir tres veces amándote para revivir


Bb                          C 
Que ya ni al caso otra oportunidad,
F 
que a ti volver no se te da,
Bb                   C 
ahora que te has clavado en mí
F 
ahora que sólo quiero ir por ti


    Bb            C 
Me dices que ya no,
      F 
que se me pasará,
      Bb           C 
que lo que te hice yo
      F 
fue más que lastimar


              Bb       C              Dm 
Y hoy te dejo con las tardes que te robe
          F       Bb     C            Dm     F 
con tu cuerpo atrapándome para dejarme ir
         Bb       C             Dm 
te dejo con ese cansancio que viene de
          F             Bb  C       Dm  F 
morir tres veces amándote para revivir


          Bb     C                Dm 
Te dejo con el tiempo que nos faltó
        F             Bb 
y todo eso que no pasó
C         Dm          F 
 eso me quedo yo.
Bb  C         Dm              F 
         El tiempo que nos faltó
Bb  C            Dm      F 
    eso me quedo yo.
Bb  C  Dm 
       El tiempo que nos faltó.
00:00 / 00:00
Outros vídeos desta música
Repetir
Outros vídeos desta música
Composição de Moenia
15 exibições
    • ½ Tom
    • Am
    • Bbm
    • Bm
    • Cm
    • C#m
    • Dm
    • Ebm
    • Em
    • Fm
    • F#m
    • Gm
    • G#m
  • Adicionar à lista

    0 comentários

    Ver todos os comentários

    Conseguiu tocar?

    0 Tocaram 0 Ainda não

    Grave um vídeo tocando Morir tres veces e nos envie!

    00:00 / 00:00

    Cifra Club Pro

    Aproveite o Cifra Club com benefícios exclusivos e sem anúncios
    Cifra Club Pro
    Aproveite o Cifra Club com benefícios exclusivos e sem anúncios
    OK