Cifra Club

Take Me Somewhere Nice

Mogwai

Cifra: Principal (violão e guitarra)
Tom: A
#This file is the author's own work and represents their interpretation of the#
#song. You may only use this file for private study, scholarship, or research.#


Album: Rock Action
Transcribed by: Rob Veater
Email: *

Hope you enjoy this
Please e-mail me if you have any improvements

Tuning = Drop D- DADGBE

------------------------------------------------------------------------------|
------------------------------------------------------------------------------|
-----------------------------2---2-------2---2--------------------------------|
-----4---4-------4---4/7-4-----4---4-4-----4---4------------------------------|
---0---0---0---0---0-----4-4---4---4-4-4---4---4------------------------------|
-0-----------0-----------4-----------4----------------------------------------|
 it repeats this for a few bars and then goes...

------------------------------------------------------------------------------|
-----2---2--------2---2-------------------------------------------------------|
------------------------------2---2-------------------------------------------|
---4---4---4----4---4---4-4-4---4---4-----------------------------------------|
-2------------2-----------5---------------------------------------------------|
--------------------------5---------------------------------------------------|
  it then finishes on an open strum of the 4th 5th and 6th strings.

This melody repeats throughout the song
I can't quite make out all the lyrics so I haven't bothered writing them down
exibições 2.735
Acordes para:
    Composição: Mário J. Oliveira

    0 comentários

    mostrar mais comentários

    Conseguiu tocar?

    2 tocaram 0 ainda não

    Grave um vídeo tocando Take Me Somewhere Nice e mande pra gente!

    00:00 / 00:00
    outros vídeos desta música
    repetir qualidade Automático
    Outros vídeos desta música
    00:00 / 00:00
    Automático
    OK