Cifra Club

Unmoved

Moi Dix Mois

Cifra: Principal (violão e guitarra)
tom: C
unmoved

riff #1

e|--------------------------|
b|--------------------------| play a few times
g|--------------------------|
d|--------------------------|
a|--------------------------|
e|-0-1-0-4-3-0-1-0-4-3-0-1--|

gtr.1 (mana)
e|-------------------------------------------------------------------|
b|-------------------------------------------------------------------|
g|-------------------------------------------------------------------|
d|-2-2-------------------------------------------6-6-6-6-6-5-5-5-5-5-|
a|-2-2-------------------------------------------4-4-4-4-4-3-3-3-3-3-|
e|-0-0---------------------------------------------------------------|
 |
 |
 |gtr.2 (k)
e|-------------------------------------------------------------------|
b|-------------------------------------------------------------------|
g|-------------------------------------------------------------------|
d|---3-3-2-3-4-3-----3-3-2-3-7-6----3-3-2-3-4-3--6-6-6-6-6-5-5-5-5-5-|
a|-----------------------------------------------4-4-4-4-4-3-3-3-3-3-|
e|-----------------0--------------0----------------------------------|
                                                pm......   .......


e|------------------------------0---------------------------|
b|------------------------------0---------------------------|
g|------------------------------0---------------------------|
d|-2------------2-2-------------2---------------6-6-6-6-6-5-|
a|-2------------2-2-------------2---------------4-4-4-4-4-3-|
e|-0------------0-0-------------0---------------------------|
 |
 |
 |
e|-----------------------------------------------------------|
b|-----------------------------------------------------------|
g|-----------------------------------------------------------|
d|---3-3-2-3-4-3-----3-3-2-3-7-6----3-3-2-3-4-3--6-6-6-6-6-5-|
a|-----------------------------------------------4-4-4-4-4-3-|
e|-----------------0--------------0--------------------------|
                                                pm......


thats all i got later ill put the whole song.
dedicated to my friend raluk
from alex
00:00 / 00:00
Outros vídeos desta música
Repetir
Outros vídeos desta música
Composição de Mana-Sama
1.022 exibições
    • ½ Tom
    • A
    • Bb
    • B
    • C
    • Db
    • D
    • Eb
    • E
    • F
    • F#
    • G
    • Ab
  • Adicionar à lista

    0 comentários

    Ver todos os comentários

    Entre para oCifra Club PRO

    Tenha acesso a benefícios exclusivos no App e no Site

    • Chega de anúncios

    • Prioridade de compra em lançamentos

    • Mais recursos no app do Afinador

    • Atendimento Prioritário

    • Descontos nos produtos Cifra Club

    • Ajude a produzir mais conteúdo

    00:00 / 00:00

    Cifra Club Pro

    Aproveite o Cifra Club com benefícios exclusivos e sem anúncios
    Cifra Club Pro
    Aproveite o Cifra Club com benefícios exclusivos e sem anúncios
    OK