Cifra Club

Puto

Molotov

Cifra: Principal (violão e guitarra)
Selo Cifra Club: esta cifra foi revisada para atender aos critérios oficiais da nossa Equipe de Qualidade.
tom: G
e|-----------------------|-----------------------------------------------
B|---------------2--4----|-----------------------------------------------
G|---5-5-5-------2--4----|---(5)-----(5)---(5)-(4)-(5)-------------------
D|---5-5-5--5-5--0--2----|---(5)-(5)-(5)---(5)-(4)-(5)-------------------
A|---3-3-3--5-5----------|---(3)-(5)-(3)---(3)-(2)-(3)-------------------
E|----------3-3----------|-------(3)-------------------------------------

e|-----------------------------------------------------------------------
B|-----------------------------------------------------------------------
G|---5-5-5-5-5--x-x-x-x-x-x-x-x-x--5-5-5-5-5--x-x-x-x-x-x-x-x-x-x--------
D|---5-5-5-5-5--x-x-x-x-x-x-x-x-x--5-5-5-5-5--x-x-x-x-x-x-x-x-x-x--------
A|---3-3-3-3-3--x-x-x-x-x-x-x-x-x--3-3-3-3-3--x-x-x-x-x-x-x-x-x-x--------
E|--------------x-x-x-x-x-x-x-x-x-------------x-x-x-x-x-x-x-x-x-x--------

|-------------------------------------------
|-------------------------------------------
|---5-5-5-5-5--x-x-x-x-x-x-x-x-x-----5------\
|---5-5-5-5-5--x-x-x-x-x-x-x-x-x-----5------ [2x]
|---3-3-3-3-3--x-x-x-x-x-x-x-x-x-----3------/
|--------------x-x-x-x-x-x-x-x-x------------

  Ending solo

e|-----------------------------------------------------------------------
B|-----------------------------------------------------------------------
G|-----5h4h3h0-[3x]--------5h4h3h0-[3x]-------5h4h3h0-[3x]---------------
D|-----------------------------------------------------------------------
A|---3------------0-1-2-3------------0-1-2-3-------------0-1-2-3--0-1-2-3
E|-----------------------------------------------------------------------

e|-----------------------------------------------------------------------
B|-----------------------------------------------------------------------
G|----------------------------5------------------------------------------
D|---------------2-------------------------------------------------------
A|---0-1-2-3---3---3--3-3-3-3---3/slide off------------------------------
E|-----------3-----------------------------------------------------------

Outros vídeos desta música
    16.585 exibições
      • ½ Tom
      • A
      • Bb
      • B
      • C
      • Db
      • D
      • Eb
      • E
      • F
      • F#
      • G
      • Ab
    • Adicionar à lista

    Afinação da cifra

    Afinador online

      0 comentários

      Ver todos os comentários

      Entre para o Cifra Club PRO

      Tenha acesso a benefícios exclusivos no App e no Site

      • Chega de anúncios

      • Badges exclusivas

      • Mais recursos no app do Afinador

      • Atendimento Prioritário

      • Aumente seu limite de lista

      • Ajude a produzir mais conteúdo

      Cifra Club Pro

      Aproveite o Cifra Club com benefícios exclusivos e sem anúncios
      Cifra Club Pro
      Aproveite o Cifra Club com benefícios exclusivos e sem anúncios
      Ops (: Contenido disponible sólo en portugués.
      OK