Cifra Club

Rastaman-dita

Molotov

Cifra: Principal (violão e guitarra)
Selo Cifra Club: esta cifra foi revisada para atender aos critérios oficiais da nossa Equipe de Qualidade.
tom: Ebm
-Este se debe de hacer rápido
E|-----------------------------------|
B|-----------0--3-----3--------------|
G|--------2--------4-----4--3--2--2--|
D|--4--4-----------------------------|
A|-----------------------------------|
E|-----------------------------------|


E|-----------------------------------|
B|-----------0--3-----3--2--2--2--2--|
G|--------2--------4-----------------|
D|--4--4-----------------------------|
A|-----------------------------------|
E|-----------------------------------|


que estás esperando pa´ pintarlo de rojo, no lo pintes de
azul que asi no me lo cojo.

Baila rica nena sabrosito, baila ricanena, mas pegadito
me gusta chichi, me gusta chacha yo quiero que me des,
que me des papaya
cada vez que te miro se me para, cada vez que te miro se
me para mi corazón se me para.

(entra el segundo requinto)

-Este se debe hacer rápido

E|-----------------------------------------|
B|--0--3--3--0--3--0-----2-----------------|
G|--------------------3-----1--1--1--------|
D|-----------------------------------4--4--|
A|-----------------------------------------|
E|-----------------------------------------|


E|--------------------------------|
B|--0--3--3--0--3--0-----2-----0--|
G|--------------------3-----3-----|
D|--------------------------------|
A|--------------------------------|
E|--------------------------------|


E|-----------------------------------------|
B|--0--3--3--0--3--0-----2-----------------|
G|--------------------3-----1--1--1--------|
D|-----------------------------------4--4--|
A|-----------------------------------------|
E|-----------------------------------------|


E|-----------------------------------|
B|--0--3--3--3--3--0-----2--2-----0--|
G|--------------------3--------3-----|
D|-----------------------------------|
A|-----------------------------------|
E|-----------------------------------|


No sé y no me importa con quien te hallas metido, pero
ese culo parece radioactivo
no quiero ser RH positivo
por eso me pongo doble preservativo
y esque me gusta tu pedo rudo
que habeces contigo me pongo muy duro
y esque me me gusta tu pedo romponpon,
romponponpon,
por que cada que te miro me crece,
cada que te miro me crece esta pena
aliviáname ñor mandar un mensaje,
me pone de malas me lleva el coraje

(entra de nuevo el primer requinto)

E|-----------------------------------|
B|-----------0--3-----3--------------|
G|--------2--------4-----4--3--2--2--|
D|--4--4-----------------------------|
A|-----------------------------------|
E|-----------------------------------|


E|-----------------------------------|
B|-----------0--3-----3--2--2--2--2--|
G|--------2--------4-----------------|
D|--4--4-----------------------------|
A|-----------------------------------|
E|-----------------------------------|


rastaman rastaman rastamandita
parece una botella de chaparrita

Baila rica nena sabrosito, baila rica nena mas pegadito
me gusta chichi me gusta chacha, yo quiero que me des
que me des papaya

Ragamuf.

Quiero comprar un boletito
para que me baile mas pegadito
yo quiero comprar la taquilla
para que pueda hacerle chichilla
yo quiero bailar con la rasta
yo quiero bailar con la rasta mandita
por que ella es como una botella
ella es una botella de chaparrita ella es fea,
tu te vez fea, levanta la cara para que te meia
rastaman, rastamandita mandita rasta mandita rasta.
(sigue el coro)

(entra el ultimo requínto para finalizar)

E|-----------------------------------------|
B|-----------------------------------------|
G|-----------------------------------------|
D|-----1--------3--------1-----------------|
A|--3-----3--5-----5--3-----3--3--5--5--5--|
E|-----------------------------------------|
Outros vídeos desta música
    119 exibições
      • ½ Tom
      • Am
      • Bbm
      • Bm
      • Cm
      • C#m
      • Dm
      • Ebm
      • Em
      • Fm
      • F#m
      • Gm
      • G#m
    • Adicionar à lista

    Afinação da cifra

    Afinador online

      0 comentários

      Ver todos os comentários

      Entre para o Cifra Club PRO

      Tenha acesso a benefícios exclusivos no App e no Site

      • Chega de anúncios

      • Badges exclusivas

      • Mais recursos no app do Afinador

      • Atendimento Prioritário

      • Aumente seu limite de lista

      • Ajude a produzir mais conteúdo

      Cifra Club Pro

      Aproveite o Cifra Club com benefícios exclusivos e sem anúncios
      Cifra Club Pro
      Aproveite o Cifra Club com benefícios exclusivos e sem anúncios
      Ops (: Contenido disponible sólo en portugués.
      OK