Cifra Club

Aprenda

Splash Shine

Mombojó

Cifra: Principal (violão e guitarra)
tom: A
Intro 2x: Gm7 Ab7(5b)

Gm7                   A7
quero me livrar dessa culpa
      Bb7M                           A7
me desculpa se eu não sou o que você quer
Gm7                  A7
quero desabafar essa mágoa
  Bb7M                        A7
segura minha mão enquanto eu ainda estou de pé
             Gm7          Dm
pois não vou mais ficar calado
        Bb7M                  A7
sair de banda pra não te encontrar
 Bb7M     F                    A7
anda, se manda, pro tempo não te pegar
Dm
creio demais em ti
  
e sei que não vou fugir
        A7
nem vou escapar
Dm
quero poder reagir
 
olhar você sorrir
      A7
e não desabar

( Gm7 Ab7(5b) ) (2x)
(1:37)
E|------------------------------------------------|
B|------------------------------------------------|
G|------------------------------------------------|
D|---------------3-1-------1-0----0-----------1---|
A|------------5-----3--2-3-----1----3-1---1-3-----|
E|--3--3-5-6----------------------------4---------|
(1:48)
E|--------------------------------------------------------------|
B|--------------------------------------------------------------|
G|--------3-2---------------------------------------------------|
D|--0---0-----5---3-2-1---------------------5~------------3-----|
A|----4---------5-------2-5-3---1-0-----6-5-----------3-5---6-3-|
E|----------------------------3-----3-2---------3-5-6-----------|
(1:59)       (2:01)
E|----------|----------------------------------------------------------|
B|----------|----------------------------------------------------------|
G|--3-2-----|----------------------------------------------------------|
D|------5---|---------3----3-4-5--3------------------------------------|
A|----------|-------5---6-----------6-3-4-5--3-1-0-3-2-1-------5-8-6~--|
E|----------|-3-5-6--------------------------------------2-5-3---------|
(2:11)  (2:12)
E|-----|---------------------------|
B|-----|---------------------------|
G|-----|---------------------------|
D|---5-|------------3---5-------1--|
A|--5--|--------3-5---6---3--1-3---|
E|-----|--3-5-6--------------------|
Composição de Felipe S
Colaboração e revisão:
  • Clint
  • Vinícius Alves
  • Henrique Almeida
6.581 exibições
    • ½ Tom
    • A
    • Bb
    • B
    • C
    • Db
    • D
    • Eb
    • E
    • F
    • F#
    • G
    • Ab
  • Adicionar à lista

    0 comentários

    Ver todos os comentários

    Conseguiu tocar?

    0 Tocaram 0 Ainda não

    Grave um vídeo tocando Splash Shine e nos envie!

    00:00 / 00:00
    outros vídeos desta música
    repetir qualidade Automático
    Outros vídeos desta música
    00:00 / 00:00
    Automático

    Cifra Club Pro

    Aproveite o Cifra Club com benefícios exclusivos e sem anúncios
    Cifra Club Pro
    Aproveite o Cifra Club com benefícios exclusivos e sem anúncios
    OK